Song name
# A B C D E F G H I J K L M N O P Q R S T U V W X Y Z

Misc Unsigned Bands - Curb Your Enthusiasm - Frolic tab

Curb your Enthusiasm
Frolic- Luciano Michelini

Tabbed by: Bobby Duwitz
2/1/08

  I tabbed this song because the other version on the internet is very incorrect. This 
is the basic melodic structure of the song and is VERY accurate, if not perfect. I have 
soundtrack to ‘Curb your Enthusiasm’ and played along with the song so I know it’s good.


E----7---6-5---4-7---4-5-----4-5---6-7---6-5---6-7----(19---7)---------|
B----------------------------------------------------------------------|
G----------------------------------------------------------------------|
D----------------------------------------------------------------------|
A----------------------------------------------------------------------|
E----------------------------------------------------------------------|


E----5---4-3---2-5---2-3----2-3---4-5---4-3---4-5--------------------------|
B--------------------------------------------------------------------------|
G--------------------------------------------------------------------------|
D-------------------------------------------------------------------7------|
A------------------------------------------------------------4--7----------|
E---------------------------------------------------------5----------------|


E----3---2-1---0-3---0-1----0-1---2-3---2-1---2-3------------------|
B------------------------------------------------------------------|
G------------------------------------------------------------------|
D------------------------------------------------------------------|
A------------------------------------------------------------------|
E------------------------------------------------------------------|

E-------10--8--7-----------------------8--10--7-------------------|
B----8--------------8---------------8--------------8--------------|
G-----------------------------------------------------------------|
D-----------------------------------------------------------------|
A-----------------------------------------------------------------|
E-----------------------------------------------------------------|

E----12---11-10---9-12---9-10----9-10---11-12---11-10---11-12--------------|
B--------------------------------------------------------------------------|
G--------------------------------------------------------------------------|
D--------------------------------------------------------------------------|
A--------------------------------------------------------------------------|
E--------------------------------------------------------------------------|

E----10---9-8---7-10---7-8----7-8---9-10---9-8---9-10----------------------|
B--------------------------------------------------------------------------|
G--------------------------------------------------------------------------|
D--------------------------------------------------------------------------|
A--------------------------------------------------------------------------|
E--------------------------------------------------------------------------|

E----8---7-6---5-8---5-6----5-6---7-8---7-6---7-8--------------------------|
B--------------------------------------------------------------------------|
G--------------------------------------------------------------------------|
D--------------------------------------------------------------------------|
A--------------------------------------------------------------------------|
E--------------------------------------------------------------------------|

E---------15--13--12------------------13--15--12-----------------------------|
B----13-----------------13--------13----------------13----(12)---------------|
G----------------------------------------------------------------------------|
D----------------------------------------------------------------------------|
A----------------------------------------------------------------------------|
E----------------------------------------------------------------------------|

Repeat where necessary, as this song is somewhat repetitive.
Tap to rate this tab
 
# A B C D E F G H I J K L M N O P Q R S T U V W X Y Z