Song name
# A B C D E F G H I J K L M N O P Q R S T U V W X Y Z

Misc Unsigned Bands - Erik Nilsen - Happy Bday Dad tab

e--0--0--2--0--5--4--|
b--------------------|
g--------------------|
d--------------------|
a--------------------|
e--------------------|

e--0--0--2--0--7--5--|
b--------------------|
g--------------------|
d--------------------|
a--------------------|
e--------------------|

e--0--0--9--5--4--4--2--|
b-----------------------|
g-----------------------|
d-----------------------|
a-----------------------|
e-----------------------|

e--10--9--9--5--7--5--|
b---------------------|
g---------------------|
d---------------------|
a---------------------|
e---------------------|
Tap to rate this tab
# A B C D E F G H I J K L M N O P Q R S T U V W X Y Z