Song name
# A B C D E F G H I J K L M N O P Q R S T U V W X Y Z

Misc Unsigned Bands - Asid - 2 Many tab

opening
E------------------------------------------------|
B------------------------------------------------|
G------------------------------------------------|
D-------0-------0-------0-------0-------0---0----|
A-----5-------3-------5-------3-------1-----0----|
E-5-5-----3-3-----5-5-----3-3-----1-1-------0----|
chorus
E----------------------------------------------|
B----------------------------------------------|
G----------------------------------------------|
D-3333-333-2222-4444-555-5555-5-55-3333----X2--|
A-1111-111-2222-4444-444-3333-4-55-0000--------|
E-2222-111-2222-4444-333-4444-4-33-0000--------|
 verse 1
E---------------------------------------------------------------|
B---------------------------------------------------------------|
G---------------------------------------------------------------|
D------9-----9-----7-----7-----9-----9--5-5---5---5---5----X2-0-|
A---7-----7--7--5-----5--5--7-----7--7--33-333-333-333--------0-|
E-00-00-00-00-00-00-00-00-00-00-00-00-0-0---------------------0-|
 chorus
E----------------------------------------------|
B----------------------------------------------|
G----------------------------------------------|
D-3333-333-2222-6666-555-5555-5-55-3333----X3--|
A-1111-111-2222-4444-444-3333-4-55-0000--------|
E-2222-111-2222-4444-333-4444-4-33-0000--------|
 verse 2
E--------------------------------------------------------------|
B--------------------------------------------------------------|
G--------------------------------------------------------------|
D------9-----9-----7-----7-----9-----9--5-5---5---5---5----X2--|
A---7-----7--7--5-----5--5--7-----7--7--33-333-333-333---------|
E-00-00-00-00-00-00-00-00-00-00-00-00-0-0----------------------|
verse 2 (continue)
E---------------------------------------|
B---------------------------------------|
G---------------------------------------|
D----5----5----7----7----9----7----5-0--|
A-33-3-33-3-55-5-55-5-77-7-55-5-33-3-0--|
E-00---00---00---00---00---00---00---0--|
 chorus
E----------------------------------------------------------------------------|
B----------------------------------------------------------------------------|
G----------------------------------------------------------------------------|
D-33333333-33333333-22222222-44444444-55555555-55555555-55555555-33333333----|X2
A-11111111-11111111-22222222-44444444-44444444-33333333-55555555-00000000----|
E-22222222-11111111-22222222-44444444-33333333-44444444-33333333-00000000----|
 chorus (continue)
E----------------------------------------------|
B----------------------------------------------|
G----------------------------------------------|
D-3333-333-2222-6666-555-5555-5-55-3333----X2--|
A-1111-111-2222-4444-444-3333-4-55-0000--------|
E-2222-111-2222-4444-333-4444-4-33-0000--------|
Tap to rate this tab
 
# A B C D E F G H I J K L M N O P Q R S T U V W X Y Z