Guitaretab - guitar tabs
Song name
# A B C D E F G H I J K L M N O P Q R S T U V W X Y Z

Misc Unsigned Bands - Last Obsession - Nothing tab

Well yet again we have the intro to our new song Wet fish it is not all but it is just 
than the intro hope u like .

e|----------5---6--5-----(x5)---------||
B|-----6------------------------------||
G|------------------------------------||
D|------------------------------------||
A|------------------------------------||
E|------------------------------------||

chorus
[ Tab from: http://www.guitaretab.com/m/misc-unsigned-bands/103087.html ]
e|----------------------------------------------------------|
B|----------------------------------------------------------|
G|7---------------------------------------------------------|  X 2
D|7--(x8)---7-------2------5------7-------------------------|
A|5---------7--(x8)-2-(x8)-5-(x5)-7--(x1)-------------------|
E|----------5-------0------3------5-------------------------|

e|----------------------------------------------------------|
B|----------------------------------------------------------|
G|----------7-------5---------------------------------------|  X 3
D|-7--------7-(8x)--5-(8x)-2--------------------------------|
A|-7-(8x)---5-------3------2-(8x)---------------------------|
E|-5-----------------------0--------------------------------|

Thanks thats what we have so far again im gonna have have to write in when we have 
the song
Related for Last Obsession - Nothing tab
×
Last Obsession - Nothing