Song name
# A B C D E F G H I J K L M N O P Q R S T U V W X Y Z

Misc Unsigned Bands - Lam - Weigiang tab

G-----7-------5-------7---------5-4-------------------------------------|
D--------------------------------------7-------5------------------------|
A-7h9---0-5h7---0-7h9---0-5h7-------7h9---0-5h7-------------------------|
E-----------------------------------------------------------------------|
  s   p s s   p s s   p s s     p p

G---7-----5-----7-----5---9-----7------9-----7-------------------------|
D-----5h7---7-----5h7-------7h9----------7h9---------------------------|
A-5-----------5---------7---------9--7---------------------------------|
E----------------------------------------------------------------------|

  s p s   p s s p s  p  s p s   p s  s p s   p

G-------7-5-------5-4-------7-5-4h5------------------------------|
D-5h7-0-----5h7-0-----5h7-0--------------------------------------|
A----------------------------------------------------------------|
E----------------------------------------------------------------|
  s   s p p s   s p p s   s p p p

G-----5-------6-------5-------4-|
D-5h7---0-5h7---0-5h7---0-5h7---|
A-------------------------------|
E-------------------------------|

G-----7-6-------------5-4-----------|
D-------------5h7-------------3h5---|
A-0-5-----0-5-----0-3-----0-3-------|
E-----------------------------------|

  s s p p s s s   s s p p s s s

G----------------------------5---|
D-------7-5------------7-5h7-----|
A-----7-----7-6------7-----------|
E-0-5------------0-5-------------|

G---0-2-----0-2---0-2-----3-2----4-5-----3-2-----0-2----3--|
D----------------------------------------------------------|
A-0-----0-0-----0-----0-0-----0-0----0-0-----0-0-----00----|
E----------------------------------------------------------|
Tap to rate this tab
# A B C D E F G H I J K L M N O P Q R S T U V W X Y Z