Guitaretab - guitar tabs
Song name
# A B C D E F G H I J K L M N O P Q R S T U V W X Y Z

Misc Unsigned Bands - Sander Nordvold - Moonlight On Earth tab

Intro:

e|----0-0-----0-0------0-0-----0-0-------------------------------| x2
B|---0-0-0---0-0-0----0-0-0---0-0-0------------------------------|
G|--0-----0-0--------0-----0-0-----------------------------------| 
D|---------------------------------------------------------------|
A|-3-------3--------3-------0------------------------------------|
E|---------------------------------------------------------------|

[ Tab from: http://www.guitaretab.com/m/misc-unsigned-bands/103110.html ]
e|---------------------------------------------------------------| x2
B|----0-0-----0-0------0-0-----0-0-------------------------------|
G|---0-0-0---0-0-0----0-0-0---0-0-0------------------------------|
D|--0-----0-0--------0-----0-0-----------------------------------|
A|---------------------------------------------------------------|
E|-3-------3--------3-------0------------------------------------|


e|----0-0-----0-0-----0-0----------------------------------------| x1
B|---0-0-0---0-0-0---0-0-0----0-0--------------------------------|
G|--0-----0-0-----0-0-----0--0-0-0-------------------------------|
D|-0------------------------0------------------------------------|
A|---------0-----------------------------------------------------|
E|-----------------0-------0-------------------------------------|

I made it myself, so it isn't so god, but its a beggining:D
Related for Sander Nordvold - Moonlight On Earth tab
Advertisement will be closed in 10 seconds