Song name
# A B C D E F G H I J K L M N O P Q R S T U V W X Y Z

Misc Unsigned Bands - Sleipnir - Alkoholiker tab

Help us improve GuitareTab! Take a short survey!
Title: Alkoholiker
Artist: Sleipnir
Tuning: Standard
Tabbed by: Maximilian S.

~ = let ring

###################INTRO:
                                       x3
e|-------------------------------------||  
B|-------------------------------------||
G|-------------------------------------||
D|-----0--------0--------0------0---0--||
A|---5---5----4---4----2------4---4----||
E|-7--------5--------3------5----------||

                        x1
e|----------------------||
B|----------------------||
G|----------------------||
D|-----0-------0--------||
A|---5---5---4---4------||
E|-7-------5-------3~~~-||

########################VERSE:
                                     x7
e|-----------------------------------|| Gestern war ich in der Kneipe, 
B|-----------------------------------|| einfach einen trinken gehen. 
G|-----------------------------------|| Einfach weg von zuhause,
D|-----0-------0-------0-------0-----|| die Plagen nicht mehr sehen.
A|---5---5---4---4---2---2---4---4---|| Stndig Stress mit der Alten,
E|-7-------5-------3-------5---------|| keine Kohle im Portemonnaie.

                        x1
e|----------------------||              Ich sple es einfach runter,
B|----------------------||              dann tut es nicht mehr weh. 
G|----------------------||
D|-----0-------0--------||
A|---5---5---4---4------||
E|-7-------5-------3~~~-||

##########################CHORUS:
                                     x3
e|-----------------------------------|| Denn ich bin Alkoholiker,
B|-----------------------------------|| ich bin Alkoholiker.
G|-----------------------------------|| Denn ich bin Alkoholiker,
D|-----0-------0-------0-------0-----|| ich bin Alkoholiker.
A|---5---5---4---4---2---2---4---4---||
E|-7-------5-------3-------5---------||

                        x1
e|----------------------||
B|----------------------||
G|----------------------||
D|-----0-------0--------||
A|---5---5---4---4------||
E|-7-------5-------3~~~-||

###################PRE-VERSE:
                                       x3
e|-------------------------------------||  
B|-------------------------------------||
G|-------------------------------------||
D|-----0--------0--------0------0---0--||
A|---5---5----4---4----2------4---4----||
E|-7--------5--------3------5----------||

                        x1
e|----------------------||
B|----------------------||
G|----------------------||
D|-----0-------0--------||
A|---5---5---4---4------||
E|-7-------5-------3~~~-||

########################VERSE:
                                     x7
e|-----------------------------------|| Morgens auf der Arbeit,
B|-----------------------------------|| da fang ich schon an.
G|-----------------------------------|| Eine Flasche Wodka,
D|-----0-------0-------0-------0-----|| sie Lchelt mich an.
A|---5---5---4---4---2---2---4---4---|| Abends in der Kneipe,
E|-7-------5-------3-------5---------|| den Platz am Tresen reseviert.

                        x1
e|----------------------||              10 Bier und 20 Korn,
B|----------------------||              ja ich hab es akzeptiert.
G|----------------------||
D|-----0-------0--------||
A|---5---5---4---4------||
E|-7-------5-------3~~~-||

##########################CHORUS:
                                     x3
e|-----------------------------------|| Denn ich bin Alkoholiker,
B|-----------------------------------|| ich trinke jeden Tag.
G|-----------------------------------|| ich bin Alkoholiker,
D|-----0-------0-------0-------0-----|| ich trinke jeden Tag.
A|---5---5---4---4---2---2---4---4---|| Ich bin Alkoholiker,
E|-7-------5-------3-------5---------|| jeden Tag trinken.

                        x1
e|----------------------||              Ich bin Alkoholiker,
B|----------------------||              bis zum Erbrechen.
G|----------------------||
D|-----0-------0--------||
A|---5---5---4---4------||
E|-7-------5-------3~~~-||

###################PRE-VERSE:
                                       x3
e|-------------------------------------||  
B|-------------------------------------||
G|-------------------------------------||
D|-----0--------0--------0------0---0--||
A|---5---5----4---4----2------4---4----||
E|-7--------5--------3------5----------||

                        x1
e|----------------------||
B|----------------------||
G|----------------------||
D|-----0-------0--------||
A|---5---5---4---4------||
E|-7-------5-------3~~~-||

########################VERSE:
                                     x7
e|-----------------------------------|| Beim Aldi um die Ecke,
B|-----------------------------------|| da bin ich lngst bekannt.
G|-----------------------------------|| Beim zahlen an der Kasse,
D|-----0-------0-------0-------0-----|| ja da zittert meine Hand.
A|---5---5---4---4---2---2---4---4---|| Was die Leute von mir denken,
E|-7-------5-------3-------5---------|| ist mir vllig scheiegal.

                        x1
e|----------------------||              Ich will besoffen sein,
B|----------------------||              alle andern knn mich mal.
G|----------------------||
D|-----0-------0--------||
A|---5---5---4---4------||
E|-7-------5-------3~~~-||

##########################CHORUS:
                                     x3
e|-----------------------------------|| Denn ich bin Alkoholiker,
B|-----------------------------------|| ich trinke jeden Tag.
G|-----------------------------------|| ich bin Alkoholiker,
D|-----0-------0-------0-------0-----|| ich trinke jeden Tag.
A|---5---5---4---4---2---2---4---4---|| Ich bin Alkoholiker,
E|-7-------5-------3-------5---------|| jeden Tag trinken.

                        x1
e|----------------------||              Ich bin Alkoholiker,
B|----------------------||              bis zum Erbrechen.
G|----------------------||
D|-----0-------0--------||
A|---5---5---4---4------||
E|-7-------5-------3~~~-||

###################ENDING:
                                       x3
e|-------------------------------------||  
B|-------------------------------------||
G|-------------------------------------||
D|-----0--------0--------0------0---0--||
A|---5---5----4---4----2------4---4----||
E|-7--------5--------3------5----------||

                        x1
e|----------------------||
B|----------------------||
G|----------------------||
D|-----0-------0--------||
A|---5---5---4---4------||
E|-7-------5-------3~~~-||
Related for Sleipnir - Alkoholiker tab