Song name
# A B C D E F G H I J K L M N O P Q R S T U V W X Y Z

Misc Unsigned Bands - Yael Naim - Im A New Soul tab

Help us improve GuitareTab! Take a short survey!
-------------------------------------------------------------------------------
                         I'M A NEW SOUL - Yael Naim
-------------------------------------------------------------------------------
Tabbed By: Joe Momma
Email: N/A

I've seen a couple of files with only the chords, but here are the bass notes that play 
the song as well as the specific notes of the chords when they're hit.


e|-----------------------1--------1--------0--------0--------------------------|
B|-----1--------1--------------------------------------------------------------|
G|-----0-----5--0--------2--------2--------2--------2--------------------------|
D|--------5--------5--3--------------3-----------5-----------------------------|
A|--3--3--------3--------3--------3-----0--3--------3-----3--------------------|
E|--------------------------1--3--------------0--------3-----------------------|
Related for Yael Naim - Im A New Soul tab