Guitaretab - guitar tabs
Song name
# A B C D E F G H I J K L M N O P Q R S T U V W X Y Z

Misc Unsigned Bands - At The Alter - At The Alter tab

-------------------------------------------------------------------------------
			     At the alter - At the alter
-------------------------------------------------------------------------------
Tabbed by:Lordofwar147
Email:jefry147@hotmail.com

Tuning:Drop D With the whole guitar droped one step

e|--------------------------------------------------------------------------|
B|--------------------------------------------------------------------------|
G|--------------------------------------------------------------------------|
D|--------------------------------------------------------------------------|
A|-14---------14p10---10---9h10-9---------9h10---10---14h15-14--------------|
E|----000-000-------0----0--------000-000------0----0----------000-000------|
      ... ...       .    .        ... ...      .    .          ... ...
[ Tab from: http://www.guitaretab.com/m/misc-unsigned-bands/103146.html ]
e|--------------------------------------------------------------------------|
B|--------------------------------------------------------------------------|
G|--------------------------------------------------------------------------|
D|---------------------------------------------2----------------------------|
A|-14p10---10---9h10-9---------3h5---5---3p2h3-2---(PLAY ALL THAT TWICE)----|
E|-------0----0--------000-000-----0---0------------------------------------|
         .    .        ... ...     .   .

e|--------------------------------------------------------------------------|
B|--------------------------------------------------------------------------|
G|--------------------------------------------------------------------------|
D|-------------------9-----------------------------10p9---------------------|
A|-----7h10---7h10-----10---7h10-----7h10---7h10----------10p9--------------|
E|-888------8------8------8------888------8------8------8-----(TWICE)-------|
   ...      .      .      .      ...      .      .      .

e|--------------------------------------------------------------------------|
B|--------------------------------------------------------------------------|
G|--------------------------------------------------------------------------|
D|----------------------------------------------------------2h3p2-----------|
A|-2------------2------------2------------------3-----3h4p3-----------------|
E|-0--0-000-000-0--0-000-000-0--0-000-000-0-1-4---4-1-----------------------|
      . ... ...    . ... ...    . ... ... . . . . . .



| /  slide up
| \  slide down
| h  hammer-on
| p  pull-off
| ~  vibrato
| +  harmonic
| x  Mute note
===============================================================================
Related for At The Alter - At The Alter tab