Song name
# A B C D E F G H I J K L M N O P Q R S T U V W X Y Z

Misc Unsigned Bands - Red Elektrika - Stalker tab

"Stalker" by Red Elektrika
Music done by Ed B. & Officer Dan

INTRO (X4)
e--------------------------------------------|
b--------------------------------------------|
g---------------7----------------------------|
d-----9------7----7--------7-----------5-----|
a---9---9--5------------7-----7-----5-----5--|
E-7------------------5-----------3-----------|

VERSE & SOLO RHYTHM (X8)
e-------------------------|
b-------------------------|
g-------------------------|
d-------7777--------------|
a-9999--5555-7777-5555----|
E-7777-------5555-3333----|

CHORUS (X2) [(X4) IN LAST CHORUS]
e-----------------------------------------|
b-----------------------------------------|
g-----------------------------------------|
d------------------7----------------------|
a-8/999-8/999-8/99-5--8/999-8/999-8/99-7--|
E-6/777-6/777-6/77----6/777-6/777-6/77-5--|

Haven't got the solo tabbed out completely so give me a little while
Tap to rate this tab
# A B C D E F G H I J K L M N O P Q R S T U V W X Y Z