Song name
# A B C D E F G H I J K L M N O P Q R S T U V W X Y Z

Misc Unsigned Bands - Broken Saviour - Clone tab

-------------------------------------------------------------------------------
                             Clone - Broken Saviour
-------------------------------------------------------------------------------
Tabbed by: Matt Eyles
Email: mattie_679@hotmail.com

Tuning:

e|---------------------------------------------------------------------------|
B|---------------------------------------------------------------------------|
G|---------------------------------------------------------------------------|
D|---------------------------------------------------------------------------|
A|--9--x----7--x----5--x----7--x---------------------------------------------|
E|--7--x----5--x----3--x----5--x---------------------------------------------|

e|-----------------------------------------------------------------------------|
B|-----------------------------------------------------------------------------|
G|-----------------------------------------------------------------------------|
D|-----------------------------------------------------------------------------|
A|--9--9--9--9--9--9--9---7--7--7--7--7--7--7---5--5--5--5--5--5--5---7--x4----|
E|--7--7--7--7--7--7--7---5--5--5--5--5--5--5---3--3--3--3--3--3--3---5--x4----|
Tap to rate this tab
 
# A B C D E F G H I J K L M N O P Q R S T U V W X Y Z