Song name
# A B C D E F G H I J K L M N O P Q R S T U V W X Y Z

Misc Unsigned Bands - Barefoot Truth - Roll If Ya Fall tab

---0---7h9p7------------2---6---9----12--12--9--9h12p9---|
---0---------9--7s5---2s4---7---11-----------------------|
---1------------------2s4---6---11-----------------------|
---2------------------2s4---8---11-----------------------|
---2--------------------2---6---9------------------------|
---0-----------------------------------------------------|


---0---7h9p7---11--7-----2---6---9----|
---0---------9---------2s4---7---11---|
---1-------------------2s4---6---11---|
---2-------------------2s4---8---11---|
---2---------------------2---6---9----|
---0----------------------------------|


---2---------------------------4---|
---4---------------------------5---|
---4---------------------------6---|
---4---------------------------6---|
---2---------2--4--4s6--4--2---4---|
-------2h3h4-----------------------|


---2-----0---|
---2-----0---|
---3-----1---|
---4-----2---|
---4-----2---|
---2-----0---|
Tap to rate this tab
# A B C D E F G H I J K L M N O P Q R S T U V W X Y Z