Song name
# A B C D E F G H I J K L M N O P Q R S T U V W X Y Z

Misc Unsigned Bands - You Me At Six - Youve Made Your Bed tab

-------------------------------------------------------------------------------
	     Misc Unsigned Bands - you me at six - youve made your bed
-------------------------------------------------------------------------------
Tabbed by: Alex
Email: alex_g_12@hotmail.com

Tuning: Standard

I tabbed this by ear so if there any mistakes that you can correct please email me

Intro/ Verse (x4)
e|----------------------------------------------------------------------------------|
B|----------------------------------------------------------------------------------|
G|--------------9---9------------9------9-------------------------------------------|
D|------7-----7---7-------7---------7-----------------------------------------------|
A|----9----9-----------9-----9------------------------------------------------------|
E|----------------------------------------------------------------------------------|

e|----------------------------------------------------------------------------------|
B|----------------------------------------------------------------------------------|
G|-----------9---9-------9---9------------------------------------------------------|
D|-----7---7---7-----7-----7--------------------------------------------------------|
A|---7---7---------7---7------------------------------------------------------------|
E|----------------------------------------------------------------------------------|

e|----------------------------------------------------------------------------------|
B|----------------------------------------------------------------------------------|
G|-----------9---9-------9---9------------------------------------------------------|
D|-----7---7---7-----7-----7--------------------------------------------------------|
A|---5---5---------5---5------------------------------------------------------------|
E|----------------------------------------------------------------------------------|

e|----------------------------------------------------------------------------------|
B|----------------------------------------------------------------------------------|
G|-----------9---9-------9---9------------------------------------------------------|
D|-----7---7---7-----7-----7--------------------------------------------------------|
A|---7---7---------7---7------------------------------------------------------------|
E|----------------------------------------------------------------------------------|

e|---------------------------------------------------------------------------------|
B|---------------------------------------------------------------------------------|
G|---9------------------------------------9---------------9----9-------------------|
D|---7------------------------------------7---------------7----9-------------------|
A|---9------------------------------------7---------------5----7-------------------|
E|---------------------------------------------------------------------------------|
You've Made Your Bed                So sleep in it   (x2)

Prechorus:(x2)
e|-5-4---6-4---6-4----5-4---6-4---6-4--|
B|-----5-----5------------5-----5------|
G|-------------------------------------|
D|-------------------------------------|
A|-------------------------------------|
E|-------------------------------------|
p.m .........................................
Chorus
e|-------------------------------------------------------------------------------------|
B|------6--------------6---------------------------------------------------------------|
G|---6--7--3--------6--7--3------------------------------------------------------------|
D|---7--7--4--2-----7--7--4--2---------------------------------------------------------|
A|---7--5--4--2-----7--5--4--2---------------------------------------------------------|
E|---5-----2--0-----5-----2--0---------------------------------------------------------|
Second Verse ( Repeat Many Times)
e|-4-4h5h4h5----4---4h5h4h5--|
B|---------------------------|
G|---------------------------|
D|---------------------------|
A|---------------------------|
E|---------------------------|

e|---------------------------------------------------------------------------------|
B|---------------------------------------------------------------------------------|
G|---9------------------------------------9---------------9----9-------------------|
D|---7------------------------------------7---------------7----9-------------------|
A|---9------------------------------------7---------------5----7-------------------|
E|---------------------------------------------------------------------------------|
You've Made Your Bed                So sleep in it   (x2)
Pre Chorus
e|-5-4---6-4---6-4----5-4---6-4---6-4--|
B|-----5-----5------------5-----5------|
G|-------------------------------------|
D|-------------------------------------|
A|-------------------------------------|
E|-------------------------------------|
pm...................................................
Chorus
e|-------------------------------------------------------------------------------------|
B|------6--------------6---------------------------------------------------------------|
G|---6--7--3--------6--7--3------------------------------------------------------------|
D|---7--7--4--2-----7--7--4--2---------------------------------------------------------|
A|---7--5--4--2-----7--5--4--2---------------------------------------------------------|
E|---5-----2--0-----5-----2--0---------------------------------------------------------|

Bridge ( Repeat Many Times)
e|--4h5h4h5-----4h5h4h5--12--|
B|---------------------------|
G|---------------------------|
D|---------------------------|
A|---------------------------|
E|---------------------------|

Bridge( Repeat A few Times)
e|---------------------------------------------------------------------------------------|
B|---------------------------------------------------------------------------------------|
G|---6-///---8-///--11-------------------------------------------------------------------|
D|---------------------------------------------------------------------------------------|
A|---4-///---6-///---9-------------------------------------------------------------------|
E|---------------------------------------------------------------------------------------|

Chorus
e|-------------------------------------------------------------------------------------|
B|------6--------------6---------------------------------------------------------------|
G|---6--7--3--------6--7--3------------------------------------------------------------|
D|---7--7--4--2-----7--7--4--2---------------------------------------------------------|
A|---7--5--4--2-----7--5--4--2---------------------------------------------------------|
E|---5-----2--0-----5-----2--0---------------------------------------------------------|

Outro ( Each One x 12) (x2)
e|-------------------------------------------------------------------------------------|
B|------6--------------6---------------------------------------------------------------|
G|---6--7--3--------6--7--3------------------------------------------------------------|
D|---7--7--4--2-----7--7--4--2---------------------------------------------------------|
A|---7--5--4--2-----7--5--4--2---------------------------------------------------------|
E|---5-----2--0-----5-----2--0---------------------------------------------------------|

Ending:
e|-5-4---6-4---6-4----5-4---6-4---6-4--|
B|-----5-----5------------5-----5------|
G|-------------------------------------|
D|-------------------------------------|
A|-------------------------------------|
E|-------------------------------------|
(pm)..........................................

| /  slide up
| \  slide down
| h  hammer-on
| p  pull-off
| ~  vibrato
| +  harmonic
| x  Mute note
===============================================================================
Tap to rate this tab
 
# A B C D E F G H I J K L M N O P Q R S T U V W X Y Z