Song name
# A B C D E F G H I J K L M N O P Q R S T U V W X Y Z

Misc Unsigned Bands - The Hoojits - You Could Have It So Much Better tab

Help us improve GuitareTab! Take a short survey!
-----------------------------------------------------------------------------
               You Could Have It So Much Better - The Hoojits
-----------------------------------------------------------------------------
Tabbed by: Me
Email: mynameisbob@hotmail.com

Tuning: Standard Shiz Moite

Intro
e|-12-12-12-17-15-17/19-14-15--12-12-12-17-15-17/19-14-15--12-12-12---------|
B|------------------------------------------------------------------12-12---|
G|--------------------------------------------------------------------------|
D|--------------------------------------------------------------------------|
A|--------------------------------------------------------------------------|
E|--------------------------------------------------------------------------|

e|-----------12-12-12-------x-15-14-12--------------------------------------|
B|-12h13p12-----------12-12-------------------------------------------------|
G|--------------------------------------------------------------------------|
D|--------------------------------------------------------------------------|
A|--------------------------------------------------------------------------|
E|--------------------------------------------------------------------------|

Verse
e|--------------------------------------------------------------------------|
B|--------------------------------------------------------------------------|
G|-------------------------4444---------------------------------------------|
D|---2-------------------------444-5h7-5h7--5555-322----0-22----------------|
A|-2---0-3-2------0-2--------------------------------22---------------------|
E|--------------3-----3-0---------------------------------------------------|

e|--------------------------------------777-10-1010-121212-10-1010----------|
B|--------------------------------------888-12-1212-131313-10-1010----------|
G|---------------------------0-2-4-0----999-12-1212-141414-11-1111----------|
D|---2------------4------------------2--999-12-1212-141414-12-1212----------|
A|-2---0-3-2----2---2h3p2---------------777-10-1010-121212-12-1212----------|
E|---------------------------------------------------------10-1010----------|

1st Solo
e|-------------------88-----10-12-10-12-12121212--------1010-------13-12----|
B|-55555555555-77-88----1010--------------------12121212----101010------13--|
G|--------------------------------------------------------------------------|
D|--------------------------------------------------------------------------|
A|--------------------------------------------------------------------------|
E|--------------------------------------------------------------------------|

e|--------------------------------------------------------------------------|
B|-10-----------------------------------------------------------------------|
G|--------------------------------------------------------------------------|
D|--------------------------------------------------------------------------|
A|--------------------------------------------------------------------------|
E|--------------------------------------------------------------------------|



Interlude
e|--------------------------------------------------------------------------|
B|--------------------------------------------------------------------------|
G|--------------------------------------------------------------------------|
D|-9-10-9-10-9-10-9-10-9-10-9-10-9~-5h7-------------------------------------|
A|--------------------------------------------------------------------------|
E|--------------------------------------------------------------------------|

Final Chorus
e|-12-12-12-17-15-17/19-14-15--12-12-12-17-19-21-19-17-15--12-12-12---------|
B|------------------------------------------------------------------12-12---|
G|--------------------------------------------------------------------------|
D|--------------------------------------------------------------------------|
A|--------------------------------------------------------------------------|
E|--------------------------------------------------------------------------|

e|-----------12-12----------15-14-12----------------------------------------|
B|-12h13p12--------12-12-12-------------------------------------------------|
G|--------------------------------------------------------------------------|
D|--------------------------------------------------------------------------|
A|--------------------------------------------------------------------------|
E|--------------------------------------------------------------------------|

Solo                                    X3 
e|-15-12-15-12-10---------------------11-|-15-15-12-15-17-12--17-17-15-17-19|
B|----------------13~--10-13-10-13-12----|----------------------------------|
G|---------------------------------------|----------------------------------|
D|---------------------------------------|----------------------------------|
A|---------------------------------------|----------------------------------|
E|---------------------------------------|----------------------------------|
 
e|-19-20-19-20-19-20-19-20-19h20p19h20p19h20p19h20-19--7~--7\---------------|
B|-----------------------------------------------------8~--8\---------------|
G|-----------------------------------------------------9~--9\---------------|
D|-----------------------------------------------------9~--9\---------------|
A|-----------------------------------------------------7~--9\---------------|
E|--------------------------------------------------------------------------|

| /  slide up
| \  slide down
| h  hammer-on
| p  pull-off
| ~  vibrato
| +  harmonic
| x  Mute note
=============================================================================
Related for The Hoojits - You Could Have It So Much Better tab