Song name
# A B C D E F G H I J K L M N O P Q R S T U V W X Y Z

Misc Unsigned Bands - Synergy - First Day Of School tab

-------------------------------------------------------------------------------
			     SONG NAME - Band Name
-------------------------------------------------------------------------------
Tabbed by:
Email: bamky3k@yahoo.com

Tuning:

e|---------------------------------------------------------------------------|
B|---------------------------------------------------------------------------|
G|--------9-9-8-6-6-4-----6-4---9-9-8-6-6-4-----6-4--------------------------|
D|--------9-9-8-6-6-4-7-7-6-4---9-9-8-6-6-4-7-7-6-4--------------------------|
A|--2-4-2-7-7-6-4-4-2-7-7-4-2---7-7-6-4-4-2-7-7-4-2--------------------------|
E|--------------------5-5-------------------5-5------------------------------|

e|---------------------------------------------------------------------------|
B|---------------------------------------------------------------------------|
G|---------------------------------------------------------------------------|
D|--4h6-6-6-4-6p4-2-----------4h6-6-6-4-6p4-2--------------------------------|
A|------------------2/4-7\6-------------------2/4-7\6------------------------|
E|---------------------------------------------------------------------------|

e|---------------------------------------------------------------------------|
B|---------------------------------------------------------------------------|
G|---------------------------------------------------------------------------|
D|---------------------------------------------------------------------------|
A|---2/4--7\6--2-4-4-7-6-6-4h6p4h6p4h6p4h6p4h6p4-2---------------------------|
E|---------------------------------------------------------------------------|

e|---------------------------------------------------------------------------|
B|---------------------------------------------------------------------------|
G|---------------------------------------------------------------------------|
D|---------------------------------------------------------------------------|
A|---2/4--7\6--2-4-4-7-6-6-4h6p4h6p4h6p4h6p4h6p4-2---------------------------|
E|---------------------------------------------------------------------------|

e|---------------------------------------------------------------------------|
B|---------------------------------------------------------------------------|
G|---------------------------------------------------------------------------|
D|---4h6-6-6-4-6p4-2----------4h6-6-6-4-6p4-9-7/11-11\9----------------------|
A|-------------------2/4-7\6-------------------------------------------------|
E|---------------------------------------------------------------------------|

Tap to rate this tab
 
# A B C D E F G H I J K L M N O P Q R S T U V W X Y Z