Song name
# A B C D E F G H I J K L M N O P Q R S T U V W X Y Z

Misc Unsigned Bands - Prototype - Beast tab

Prototype
Beast
Guerilla Warfare

second best song on the album...
Drop C#

Intro x2
|---------0---------------0---------------0---------------0-------|----|
|-----3-----3---3-----3-----3---3-----3-----3---3-----3-----3---3-|----|
|---2---2-----2-----2---2-----2-----3---3-----3-----3---3-----3---|----|
|-0---------------0---------------3---------------3---------------|----|
|-----------------------------------------------------------------|-7b-|
|-----------------------------------------------------------------|----|

Intro pt2
|-----------------------------------------|
|-----------------------------------------|
|-----------------------------------------|
|-0-0-3p0-5h6-5-3h5p3-0-0-3p0-5h6-5-3h5p3-|
|-0-0-3p0-5h6-5-3h5p3-0-0-3p0-5h6-5-3h5p3-|
|-0-0-3p0-5h6-5-3h5p3-0-0-3p0-5h6-5-3h5p3-|x2

|-------------------------------------------------|
|-------------------------------------------------|
|-------------------------------------------------|
|-5-5-8p5-10h11-10-8h10p8-5-5-8p5-10h11-10-8h10p8-|
|-5-5-8p5-10h11-10-8h10p8-5-5-8p5-10h11-10-8h10p8-|
|-5-5-8p5-10h11-10-8h10p8-5-5-8p5-10h11-10-8h10p8-|

|-----------------------------------------|
|-----------------------------------------|
|-----------------------------------------|
|-0-0-3p0-5h6-5-3h5p3-0-0-3p0-6-5-3-5p3p0-|
|-0-0-3p0-5h6-5-3h5p3-0-0-3p0-6-5-3-5p3p0-|
|-0-0-3p0-5h6-5-3h5p3-0-0-3p0-6-5-3-5p3p0-|

Verse (palm mute)
|---------------------------|
|---------------------------|
|---------------------------|
|---------------------------|
|-0010-00103h5-0010-00106p5-|
|-0010-00103h5-0010-00106p5-|

For Pre-chorus just repeat intro pt1 but slow the tempo down by half

Chorus
|----------------------------------|
|----------------------------------|
|-77777777777777775555555555555555-|
|-xxxxxxxxxxxxxxxx3333333333333333-|
|-55555555555555553333333333333333-|
|-00000000000000003333333333333333-|

|------------------------------------------------------------------|
|------------------------------------------------------------------|
|-1212121212121212121212121212121210101010101010101010101010101010-|
|-10101010101010101010101010101010-8-8-8-8-8-8-8-8-8-8-8-8-8-8-8-8-|
|-10101010101010101010101010101010-8-8-8-8-8-8-8-8-8-8-8-8-8-8-8-8-|
|-10101010101010101010101010101010-8-8-8-8-8-8-8-8-8-8-8-8-8-8-8-8-|

cant make out the bridge, interlude or solo...just go with your gut

repeat chorus after that and your done... and hopefully your still alive:p

hav fun
Tap to rate this tab
 
# A B C D E F G H I J K L M N O P Q R S T U V W X Y Z