Guitaretab - guitar tabs
Song name
# A B C D E F G H I J K L M N O P Q R S T U V W X Y Z

Misc Unsigned Bands - Lostalone - Blood Is Sharp tab

Intro - Chords = Em, C, D, Em, C, D, B, C, D...Then a 1/4 bend on the Low E 3rd Fret

--Em--------C------------D--------B-----

|-0------------------------------------|
|-8---------5-(8)--------7--------4----|
|-9---------5------------7--------4----|
|-9---------5------------7--------4----|
|-7------------------------------------|
|-0------------------------------------|

Main Riff - Not correct note amounts, but right fret notes at least...
|-----------------------|-------------------------------|
|-----------------------|------------------8------------|
|-----------------------|------------------10b(12)------|
|-----------------------|-------------------------------|
|-----------------------|-------------------------------|
|-0-0-3p0-0-5p0-0-3p0-0-|-0-0-3p0-0-5p0-----------------|

[ Tab from: http://www.guitaretab.com/m/misc-unsigned-bands/103291.html ]
|-----------------------|------------------------|
|-----------------------|------------------------|
|-----------------------|------------------4-----|
|-----------------------|------------------4-----|
|-----------------------|------------------2-----|
|-0-0-3p0-0-5p0-0-3p0-0-|-0-0-3p0-0-5p0----------|

Verse Chords
|---------------------------------|
|---------------------------------|
|-5--------5--------7--------7----|
|-5--------5--------7--------7----|
|-3--------x--------5--------x----|
|----------5-----------------7----|

Bridge
|-----------------------|-------------------|
|-----------------------|-------------------|
|-------12-12-11-11-9-9-|-------9-9---------|
|-10-10-----------------|-12-12-----9-9-7-9-|
|-----------------------|-------------------|
|-----------------------|-------------------|


|-----------------------|---------------------------|
|-----------------------|---------------------------|
|-------12-12-11-11-9-9S|=14-14-12-12-11-11---------|
|-10-10-----------------|---------------------9-9---|
|-----------------------|---------------------------|
|-----------------------|---------------------------|

If any questions : escaflown72@hotmail.fr
Related for Lostalone - Blood Is Sharp tab
Advertisement will be closed in 10 seconds