Song name
# A B C D E F G H I J K L M N O P Q R S T U V W X Y Z

Misc Unsigned Bands - Lostalone - Genevieve tab

A Fast 5 Min Tab Of The Main Parts To Genevieve!

Enjoy!

P.s. You Might Need To Bang It In Notepad :)


(C# G# C# F# A# D#)

Main Riff
|--------------------------------|
|--------------------------------|
|--------------------------------|
|--------------------------------|
|-5p3p0--------------------------|
|-------3-0-0-0-0-0-0-0-0-0-0----|


|----------------------------------------------------------------------|
|----------------------------------------------------------------------|
|----------------------------------------------------------------------|
|----------------------------------------------------------------------|
|-5p3p0-------5p3p0-------5p3p0h5p3p0h5p3p0h5p3p0h5p3p0h5p3p0h5p3p0----|
|-------5p3p0-------5p3p0-------------------------------------------3--|

Then DESTROY Your Guitar With Open Hits With The Main Riff

Verse
|-----------------------------------|
|-----------------------------------|
|-----------------------------------|
|-----------------------------------|
|-----5-5-3-3-0-0-8-8-7-8-10-10-8-7-|
|-0-0-------------------------------|

Pre Chorus
|------------------------------------|---------------------------------|
|------------------------------------|---------------------------------|
|------------------------------------|---------------------------------|
|------------------------------------|-8-------------------------------|
|-----5-5-3-3-0-0-8-8-7-8-10-10-8-7-|-8--------------------------------|
|-0-0--------------------------------|-8----5p3p0h5p3p0h5p3p0----------|

Chorus Chords
|-----------|-----------|------------|-------------------|
|-----------|-----------|------------|-------------------|
|-7---------|-----------|-7----------|-------------------|
|-7----7----|-8----5----|-7----7--3--|-0----3--0----7----|
|-5----7----|-8----5----|-5----7--3--|-0----3--0----7----|
|-0----7----|-8----5----|-0----7--3--|-0----3--0----7----|


|---------|-----------|------------|-----------------|
|---------|-----------|------------|-----------------|
|-7-------|-------12--|-10---------|-----------------|
|-7----7--|--8----12--|-10----7--3-|-0---3--0---7----|
|-5----7--|--8----10--|--8----7--3-|-0---3--0---7----|
|-0----7--|--8--------|-------7--3-|-0---3--0---7----|
Tap to rate this tab
# A B C D E F G H I J K L M N O P Q R S T U V W X Y Z