Guitaretab - guitar tabs
Song name
# A B C D E F G H I J K L M N O P Q R S T U V W X Y Z

Misc Unsigned Bands - 4x4 - Asid tab

verse1
e-------------------------------------------------|
B-------------------------------------------------|
G--------7--9--------5----------------------------|
D--7--9--7--9--5--7--5--3333--5555----------------|
A--7--9--5--7--5--7--3--3333--5555----------------|
E--5--7--------3--5-----1111--3333----------------|
chorus
e-------------------------------------------------|
B-------------------------------------------------|
G-------------------------------------------------|
D-22-9-7777-22-7-9999-22-7-5555-22-5-7777--X3-----|
A-22-9-7777-22-7-9999-22-7-5555-22-5-7777---------|
E-00-7-5555-00-5-7777-00-5-3333-00-3-5555---------|
verse 2
e-------------------------------------------------|
B-------------------------------------------------|
G--------7--9--------5----------------------------|
D--7--9--7--9--5--7--5--3333--5555----------------|
A--7--9--5--7--5--7--3--3333--5555----------------|
E--5--7--------3--5-----1111--3333----------------|
let ring
[ Tab from: http://www.guitaretab.com/m/misc-unsigned-bands/103295.html ]
chorus
e-------------------------------------------------|
B-------------------------------------------------|
G-------------------------------------------------|
D-22-9-7777-22-7-9999-22-7-5555-22-5-7777--X4-----|
A-22-9-7777-22-7-9999-22-7-5555-22-5-7777---------|
E-00-7-5555-00-5-7777-00-5-3333-00-3-5555---------|
verse 3
e-----------------------------------------------------------------------|
B-----------------------------------------------------------------------|
G---------------------7xxxxxxxx-9xxxxxxxx---------------------5xxxxxxxx-|
D-7xxxxxxxx-9xxxxxxxx-7xxxxxxxx-9xxxxxxxx-5xxxxxxxx-7xxxxxxxx-5xxxxxxxx-|
A-7xxxxxxxx-9xxxxxxxx-5xxxxxxxx-7xxxxxxxx-5xxxxxxxx-7xxxxxxxx-3xxxxxxxx-|
E-5xxxxxxxx-7xxxxxxxx---------------------3xxxxxxxx-5xxxxxxxx-----------|
verse 3 (continue)
e---------------------------|
B---------------------------|
G---------------------------|
D-33333333-77777777---------|
A-33333333-77777777---------|
E-11111111-55555555---------|
chorus
e-------------------------------------------------|
B-------------------------------------------------|
G-------------------------------------------------|
D-22-9-7777-22-7-9999-22-7-5555-22-5-7777--X3-----|
A-22-9-7777-22-7-9999-22-7-5555-22-5-7777---------|
E-00-7-5555-00-5-7777-00-5-3333-00-3-5555---------|
interlude
e----------|------------------------------------------------------------|
B----------|------------------------------------------------------------|
G-77777777-|-9------55----9------77----9------55----9-------------------|
D-55555555-|-7-9-22-33-77-7-9-22-55-55-7-9-22-33-77-7-9-22-555-777---X2-|
A-55555555-|-7-9-22-33-77-7-9-22-55-55-7-9-22-33-77-7-9-22-555-777------|
E-55555555-|-7-7-00-33-55-7-7-00-55-33-7-7-00-33-55-7-7-00-333-555------|
chorus
e-------------------------------------------------|
B-------------------------------------------------|
G-------------------------------------------------|
D-22-9-7777-22-7-9999-22-7-5555-22-5-7777--X3-----|
A-22-9-7777-22-7-9999-22-7-5555-22-5-7777---------|
E-00-7-5555-00-5-7777-00-5-3333-00-3-5555---------|
outro
e-------------------------------------------------|
B-------------------------------------------------|
G-777-777-555-555-222-----------------------------|
D-777-777-555-555-222-----2-----------------------|
A-555-555-333-333-000-----2-----------------------|
E-------------------------0-----------------------|
Related for 4x4 - Asid tab
Advertisement will be closed in 10 seconds