Song name
# A B C D E F G H I J K L M N O P Q R S T U V W X Y Z

Misc Unsigned Bands - Valhalla - Valhalla tab

Help us improve GuitareTab! Take a short survey!
-------------------------------------------------------------------------------
			    VALHALLA - Valhalla
-------------------------------------------------------------------------------
Tabbed by:Massacredeicide
Email:mhurley@hyde.edu

Tuning:DADGBe
Intro - Pre Verse (Guitar and Drums, no specific beat yet)
e|--------------------------------------------------------------|
B|---------------------------------------------------2~---------|
G|---------------------------------------------------3~---------|
D|-111222x-0~---------0~-----------------------------0~-0x------|
A|-111222x-0~---------0~-----------------------------0~-0x------|
D|-111222x-0~-000000000~-000-000-000-111-111-222-222-0~-0x------|
Pre verse    
e|-----------------------------------------------------|
B|-----------------------------------------------------|
G|-----------------8~------8~--------------------------|
D|-0~------0~------8~------8~----------21x-0~----------|
A|-0~------0~------6~------6~------8/7-21x-0~----------|
D|-0~-0000-0~-0000-6~-6666-6~-6666-8/7-21x-0~----------|
Verse 1&2 (beat)
e|-----------------------------------------------------------|
B|-----------------------------------------------------------|
G|------------------------------------8~---------------------|
D|--------8~-----2/1-0000x-0~-2/1-00x-8~---------------------|(x2)
A|-0000--6x--8/7-2/1-0000x-0~-2/1-00x-6~---------------------|
D|-0000-6x---8/7-2/1-0000x-0~-2/1-00x-6~---------------------|
     16 X no mute
Chorus 1,2, & 3 (3 is different)
e|------------------------------------------------------------|
B|------------------------------------------------------------|
G|--------------------8888------------------------------------|
D|-00x-0~-8~-0~-2211x-8888-------------0~---------------------|(x4)
A|-00x-0~-6~-0~-2211x-6666-------------0~---------------------|
D|-00x-0~-6~-0~-2211x-6666-4x-3x-1x-2x-0~---------------------|
                      8x 
Bridge
e|--------------------------------------------16---------|
B|--------------------------------------------13---------|
G|------------------------------------7/8----------------|
D|------------------------------------6/7-00x------------|(x2)
A|------------------------------------5/6-00x------------|
D|-000-000-00-000-000-666-666-888-888-----00x------------|
       all palm muted
Bridge part 2 (start at living the life)
e|----------------------------------------------------------|
B|----------------------------------------------------------|
G|------886-----------------8------3------------------------|
D|------886-211x------------8------3------0~----------------|
A|------668-211x------------6------1------0~----------------|
D|-0000-668-210x-0000-0123x-6-4321x1-5432-0~----------------|
 palm mute 16 times {both} (the 0's)
Pre chorus acoustic
e|---------------------------------|
B|---------------------2~----------|
G|----8---9---4---3----3~----------|
D|---8---9---4---3---0-0~----------|
A|--6---7---2---1---0--0~----------|
D|-6---7---2---1---0---0~----------|
Final chorus
e|--------------------------------------------------------|
B|--------------------------------------------------------|
G|--------------------------------------------------------|
D|--------------------------------------------------------|
A|--------------------3-----------------------------------|
D|-0000-8888-6666-3456-1235-0000-8888-6666-22221111x------|
  tremelo chorus  (x16)for each              mute the 2's and 1's

e|-----------------------------------------|
B|-----------2-------------------2~--------|
G|-----88x---3------8/9------4/3-3~--------|
D|---8-88x-1-0-6666-8/9------4/3-0~--------|
A|--6--66x-1-0-6666-6/7------2/1-0~--------|
D|-6---66x-1-0-6666-6/7-7654-2/1-0~--------|
| /  slide up
| \  slide down
| h  hammer-on
| p  pull-off
| ~  vibrato
| +  harmonic
| x  Mute note
===============================================================================
Related for Valhalla - Valhalla tab