Song name
# A B C D E F G H I J K L M N O P Q R S T U V W X Y Z

Misc Unsigned Bands - Devilish - I Neednt You tab

-------------------------------------------------------------------------------
			     I Needn't You - Devilish
-------------------------------------------------------------------------------
Tabbed by: Sasha


Tuning: Standard

Intro
e|---------------------------------------------------------------------------|
B|---------------------------------------------------------------------------|
G|---------------------------------------------------------------------------|
D|------10-------10-------10-------10-------10-------10-------10--------10---|
A|--8-8----8-8-8----8-7-7----7-7-7----7-8-8----8-8-8----8-7-7----7-7-7-----8-|
E|---------------------------------------------------------------------------|


Verse
e|-----------------------------------|
B|-----------------------------------|
G|-----------------------------------|
D|-----------------------------------| x5
A|------5-------5-------5-------5----|
E|--3-3---3-3-3---0-2-2---2-2-2---2--|

e|-------------------|
B|-------------------|
G|-------------------|
D|-------------------|
A|------5-------5----|
E|--3-3---3-3-3---3--|

Chorus
e|--------------------------|
B|--------------------------|
G|--------------------------|
D|-5--5xx5--5--7--7xx7--7---| x8
A|-5--5xx5--5--7--7xx7--7---|
E|-3--3xx3--3--5--5xx5--5---|

Verse
Chorus
Verse - add one more riff part (to make it x6 instead of x5)
Chorus

Enjoy!




| /  slide up
| \  slide down
| h  hammer-on
| p  pull-off
| ~  vibrato
| +  harmonic
| x  Mute note
===============================================================================
Tap to rate this tab
# A B C D E F G H I J K L M N O P Q R S T U V W X Y Z