Song name
# A B C D E F G H I J K L M N O P Q R S T U V W X Y Z

Misc Unsigned Bands - Carly Comando - Everyday tab

Everyday - Carly Comando


MY FIRST TAB, YEY

I'm hoping that this will make sense

The finger picking pattern is D G B D G B D G (x2)
Whilst holding down the following chords
Am
F
C
Em



IF NOT, then here you go, I was just messing around on my guitar and I 
heard this, then I remembered it was from that Noah takes a picture 
vid, then I searched tabs, found none, so I tried to do it myself, 
Enjoyy. =]

          Am
e|-------------------------------------|
B|-------1-----1----------1-----1------|
G|-----2-----2-----2----2-----2-----2--|
D|---2-----2-----2----2-----2-----2----|
A|-------------------------------------|
E|-------------------------------------|

          F
e|-------------------------------------|
B|-------1-----1----------1-----1------|
G|-----2-----2-----2----2-----2-----2--|
D|---3-----3-----3----3-----3-----3----|
A|-------------------------------------|
E|-------------------------------------|

          C
e|-------------------------------------|
B|-------1-----1----------1-----1------|
G|-----0-----0-----0----0-----0-----0--|
D|---2-----2-----2----2-----2-----2----|
A|-------------------------------------|
E|-------------------------------------|

          
e|-------------------------------------|
B|-------0-----0----------0-----0------|
G|-----1-----1-----1----1-----1-----1--|
D|---2-----2-----2----2-----2-----2----|
A|-------------------------------------|
E|-------------------------------------|
Tap to rate this tab
 
# A B C D E F G H I J K L M N O P Q R S T U V W X Y Z