Guitaretab - guitar tabs
Song name
# A B C D E F G H I J K L M N O P Q R S T U V W X Y Z

Misc Unsigned Bands - Burning Tree Project - Hello tab

-------------------------------------------------------------------------------
			     HELLO - Burning Tree Project
-------------------------------------------------------------------------------
Tabbed by: McJizzle

From BTP's Time And Color EP


Tuning: Standard

Verse (0:06)
e|--------------------------------4----|
B|--6---6-4-6---6-4-6---6-4-6---6------|
G|----6-------6-------6-------6--------|
D|-------------------------------------| repeat this many times
A|-------------------------------------|
E|-------------------------------------|
Hello, hello hello, so he said goodbye...
[ Tab from: http://www.guitaretab.com/m/misc-unsigned-bands/103481.html ]
Chorus (0:54)
Chords:  Db     Ab     Gb     
e|-------4)-----4)-----2)-----------------------------------------------|
B|-------6)-----4)-----2)-----------------------------------------------|
G|-------6)-----5)-----3)-----------------------------------------------|
D|-------6)-----6)-----4)-----------------------------------------------|
A|-------4)-----6)-----4)-----------------------------------------------|
E|--------------4)-----2)-----------------------------------------------|
                Db   Ab
I still waited here,
                Gb           Ab
You were saying no, I'll be fine.
                Db   Ab <- let this one ring
I still waited here,

Always for you dear.


Interlude (1:12)
e|---------4------------------------------------|
B|---6---6---6-7-6-4----------------------------|
G|-----6----------------------------------------| play 8 times
D|----------------------------------------------|
A|----------------------------------------------|
E|----------------------------------------------|

Chorus 2 (1:34)
Chords:  Db     Ab     Gb     
e|-------4)-----4)-----2)-----------------------------------------------|
B|-------6)-----4)-----2)-----------------------------------------------|
G|-------6)-----5)-----3)-----------------------------------------------|
D|-------6)-----6)-----4)-----------------------------------------------|
A|-------4)-----6)-----4)-----------------------------------------------|
E|--------------4)-----2)-----------------------------------------------|
                Db   Ab
I still waited here,
                Gb           Ab
You were saying no, I'll be fine.
                Db   Ab
I still waited here,

Always for you dear.




===============================================================================
Related for Burning Tree Project - Hello tab
×
Burning Tree Project - Hello