Song name
# A B C D E F G H I J K L M N O P Q R S T U V W X Y Z

Misc Unsigned Bands - Oh Chentaku - Polaroid tab

Oh Chentaku : Polaroid
Tabbed by   : Hariz05
Tunning     : Standard (eADGBE)

Visit: http://www.myspace.com/ohchentaku

!------------------------------------------------!
| This tab is ear-transcribe.                    |
| Meaning I tabbed it out the way I hear it.     |
| So its not 100% accurate.                      |
|------------------------------------------------|
| Please RATE! and don't hesitate to correct me. |
| Hope you like it!                              |
|------------------------------------------------|
| /  - Slide                                     |
| *  - Let ring                                  |
| PM - Palm mute                                 |
!------------------------------------------------!

Here you go!

[INTRO]
e|------------------------------|
A|-44444-4444-44--44444-4444-44-|
D|-44444-4444-44--44444-4444-44-|
G|-44444-4444-44--44444-4444-44-|
B|-22222-2222-22--22222-2222-22-|
E|------------------------------|\
                                  x2  
e|------------------------------|/
A|---7-7*-----------9-9*--------|
D|-888-8*---------888-8*--------|
G|-888-8*---------888-8*--------|
B|-666-6*---------666-6*--------|
E|------------------------------|
PM ..             .. 

e|------------------------------|
A|-44444-4444-44--44444-4444-44-|
D|-44444-4444-44--44444-4444-44-|
G|-44444-4444-44--44444-4444-44-|
B|-22222-2222-22--22222-2222-22-|
E|------------------------------|

Next is the piano part.
This how I play the VERSE during the piano part:

e|------------------------------|
A|-------7-------6-------4------|
D|-----8-------6-------4--------|
G|---8-------6-------4----------| x2
B|-6-------4-------2------------|
E|------------------------------|

[VERSE 1] "Calculated what's left inside..."
e|------------------------------|
A|-------7-------6-------4------|
D|-----8-------6-------4--------|
G|---8-------6-------4----------| x4
B|-6-------4-------2------------|
E|------------------------------|

Just before the CHORUS:

e|-----9*-----------------------|
A|-6-7--------------------------|
D|------------------------------|
G|------------------------------|
B|------------------------------|
E|------------------------------|

[CHORUS] "I gave you everything..." 
e|--------------------------------------|
A|-44444444-66666666-22222222-7777-6666-|
D|-44444444-66666666-33333333-8888-6666-| x2
G|-44444444-66666666-33333333-8888-6666-|
G|-22222222-44444444-11111111-6666-4444-|  
E|--------------------------------------|
                                 
e|--------------------------------------|
A|-44444444-44444444--------------------|
D|-44444444-44444444--------------------|
G|-44444444-44444444--------------------|
B|-22222222-22222222--------------------|
E|--------------------------------------|

Repeat [INTRO] x2

e|------------------------------|
A|-44444-4444-44--44444-4444-44-|
D|-44444-4444-44--44444-4444-44-|
G|-44444-4444-44--44444-4444-44-|
B|-22222-2222-22--22222-2222-22-|
E|------------------------------|

[VERSE 2] "I wonder what went wrong..."
e|------------------------------|
E|----7*----6*----4*----4*------|
D|-8888*-6666*-4444*-4444*------| x2
G|-8888*-6666*-4444*-4444*------|
B|-6666*-4444*-2222*-2222*------|
E|------------------------------|
PM ...   ...   ...   ...

"And every time you're fucking proud..."
e|------------------------------|
A|------------------------------|
D|----7X----6X--------4---------|
G|-8888X-6666X-44444444---------|
B|-8888X-6666X-44444444---------|
E|-6666X-4444X-22222222---------|
e|------------------------------|

"I hate the truth but..."
e|------------------------------|
A|----7*----6*----4*------------|
D|-8888*-6666*-4444*------------|
G|-8888*-6666*-4444*------------|
B|-6666*-4444*-2222*------------|
E|------------------------------|
PM ...   ...   ...

[Repeat CHORUS] x2

Lyrics:

I'm calculating what's left inside me
When everything I left were my life and my dreams
And every time you were proud of what you were not
This is the truth and it'll be a history

I gave you everything, I gave up my life and they were all for you,
you've ruined everything!
I gave you everything and I gave up my life
And they were all for you! (And they were all for you)

I wonder what went wrong, it became like this
when I'm not pretty sure (No, I'm not pretty sure)
After all the crossings we've been through,
it's not suppose to be like this. Why?
And every time you're fucking proud of what you're not
I hate the truth but still it'll be a history

I swear you will know this somehow
Before it's too late and dies
Realities are so complicated
I wish to see the truth shines brightly in your eyes
 
It's even for me, and even for you
Just try to understand…
You and me, yeah I remember,
Look how we were meant to be!

http://www.myspace.com/ohchentaku
Tap to rate this tab
# A B C D E F G H I J K L M N O P Q R S T U V W X Y Z