Song name
# A B C D E F G H I J K L M N O P Q R S T U V W X Y Z

Misc Unsigned Bands - Tue West - Tankespind tab

Highlighted       Show chord diagrams
www.tuewest.dk

-------------------------------------------------------------------------------
			     Tankespind - Tue West
-------------------------------------------------------------------------------
Tabbed by: Per Budtz-Jørgensen
Email: budtz38@hotmail.com

Tuning: DADF#Ad, capo 2nd fret

INTRO:

|E/B   E/A   |Eadd9      |Am6   F#ø  | 

|E/G#  C#m7  |D6,9       |E6         |  


VERS:

E/B     E/A     Eadd9        E
Tankespind jeg kommer nu
Am6         F#ø         E/G#   C#m7
for jeg vil godt ha dig ud og lære
   D6,9               E6
at tale med andre

luk mig ind mens du er væk
så jeg ka låse din dør
og holde dig væk fra facaden

OMKVÆD:
        Bm  Bm/A  E6
Se mit sind -Åh- tankespind
     D         B/D#       E6(2) 
jeg lokker dig og går min vej
            Bm Bm/A  E6
for jeg er stærk i glædesrus
    D     B/D#          E6     D/F# G 
og vinder nok det næste år 


CHORDS:

   E/B     E/A     Eadd9   E       Am6     F#ø     E/G#    C#m7    D6,9    E6    
e |0-------0-------0-------0-------0-------0-------0-------0-------0-------0-|
B |0-------0-------0-------0-------0-------0-------0-------0-------0-------2-|
G#|0-------0-------0-------0-------4-------2-------0-------0-------1-------0-|
E |0-------0-------5-------4-------5-------3-------0-------0-------2-------0-|
B |0-------0-------0-------0-------x-------x-------0-------2-------3-------0-|
E |7-------5-------0-------0-------5-------3-------4-----------------------0-|

   Bm      Bm/A    E6      D       B/D#    E6(2)   D/F#    G
e |2-------2-------0-------2-------2-------4-------2-------3-----------------|
B |3-------2-------2-------3-------4-------5-------3-------3-----------------|
G#|3-------1-------0-------3-------3-------5-------3-------3-----------------|
E |2-------2-------0-------2-------2-------4-------0-------3-----------------|
B |0-------0-------0-------3-------4-------0-------x-------3-----------------|
E |----------------0-----------------------0-------2-------3-----------------|
                           bar chords

Sidste gang var sidste gang
men har jeg glemt dine børn
og alt det de gerne vil lære
Tankespind jeg kommer nu
for jeg vil godt ha dig ud
og lære at tale med andre
Se mit sind Tankespind
jeg lokker dig og går min vej
for jeg er stærk i glædesrus
og vinder nok det næste år 

| /  slide up
| \  slide down
| h  hammer-on
| p  pull-off
| ~  vibrato
| +  harmonic
| x  Mute note
===============================================================================
Tap to rate this tab
# A B C D E F G H I J K L M N O P Q R S T U V W X Y Z