Song name
# A B C D E F G H I J K L M N O P Q R S T U V W X Y Z

Misc Unsigned Bands - Maths Class - Conversations And Smoke Signals tab

Official Tab

Tuning: EADGBe

Intro


e|-------------------------------------------------------------------|
B|-------------------------------------------------------------------|
G|-7---7-7-7---7-7-7---7-7-7---7-7-7---------------------------------|
D|-7---7-7-7---7-7-7---7-7-7---7-7-7-7-7-7-7-7-6-6-3-3-3-3-3-3-3-3-3-|
A|-5---5-5-5---5-5-5---5-5-5---5-5-5-7-7-7-7-7-6-6-3-3-3-3-3-3-3-3-3-|
E|-----------------------------------5-5-5-5-5-4-4-1-1-1-1-1-1-1-1-1-|

pre-verse

e|--------------10-11-12-13-------------------------------------------|
B|--------------------------------------------------------------------|
G|-7---7-8-9-10-7--8--9--10----------7---------0-7h-10h---------------|
D|--------------------------------------------------------------------|
A|-5---5-6-7-8--------------------------------------------------------|
E|--------------------------------------------------------------------|

verse

e|---10-8---------------------------10-8------------------------------|
B|-----------8----------------8-6-----------8-------------------------|
G|-7------10---10-6-----5-0-5------7-----10---10-6----5----3-3/8------|
D|------------------0-7----------------------------0-7--0-5-----------|
A|--------------------------------------------------------------------|
E|--------------------------------------------------------------------|

chorus

e|--------------------------------------------------------------------|
B|--------------------------------------------------------------------|
G|-7-7-7-7-7----------------------------5--5--5--5--5-----------------|
D|-7-7-7-7-7----7-7-7-7-7---3-3-3-3-3---5--5--5--5--5-----------------|
A|-5-5-5-5-5----7-7-7-7-7---3-3-3-3-3---3--3--3--3--3-----------------|
E|--------------5-5-5-5-5---1-1-1-1-1---------------------------------|

bridge

e|---10-8----------------------------------------------10-8-----------|
B|-----------8-------------------------------------------------8------|
G|-7------10---10-------------7-7-7-7-7-7------------7------10---10---|
D|--------------------------------------------------------------------|
A|--------------------------------------------------------------------|
E|--------------------------------------------------------------------|


chorus

e|--------------------------------------------------------------------|
B|--------------------------------------------------------------------|
G|-7-7-7-7-7----------------------------5--5--5--5--5---7-------------|
D|-7-7-7-7-7----7-7-7-7-7---3-3-3-3-3---5--5--5--5--5---7-------------|
A|-5-5-5-5-5----7-7-7-7-7---3-3-3-3-3---3--3--3--3--3---5-------------|
E|--------------5-5-5-5-5---1-1-1-1-1---------------------------------|

| / slide up
| h hammer-on
Tap to rate this tab
# A B C D E F G H I J K L M N O P Q R S T U V W X Y Z