Guitaretab - guitar tabs
Song name
# A B C D E F G H I J K L M N O P Q R S T U V W X Y Z

Misc Unsigned Bands - Jolly Death - Vil Scarecrow tab

Évil Scarecrow
(D-A-d-g-b-e)
 ^

|--------------------------------|
|--------------------------------|
|--------------------------------|
|0---x-x-x-0-x-x-0---x-x---------|x2
|0---x-x-x-0-x-x-0---x-x---------|
|0---x-x-x-0-x-x-0---x-x-4p3p1h3-|
[ Tab from: http://www.guitaretab.com/m/misc-unsigned-bands/103547.html ]
|--------------------------------|---------------------------------|
|--------------------------------|---------------------------------|
|--------------------------------|---------------------------------|
|-0-0-0-0-1-1-4-4-0-0-0-0-1-1-4-4|-0-0-0-0-1-1-4-4-0-0-0-0-4-4-1-1-| x2
|-0-0-0-0-1-1-4-4-0-0-0-0-1-1-4-4|-0-0-0-0-1-1-4-4-0-0-0-0-4-4-1-1-|
|-0-0-0-0-1-1-4-4-0-0-0-0-1-1-4-4|-0-0-0-0-1-1-4-4-0-0-0-0-4-4-1-1-|

|----------------------------------------|
|----------------------------------------|
|----------------------------------------|
|-0-0-0-0-13-13-12-12-0-0-0-0-15-15-12-12|
|-0-0-0-0-13-13-12-12-0-0-0-0-15-15-12-12|
|-0-0-0-0-13-13-12-12-0-0-0-0-15-15-12-12|
                                                }x2
|----------------------------------------|
|----------------------------------------|
|----------------------------------------|
|-0-0-0-0-13-13-12-12-0-0-0-0-18-18-15-15|
|-0-0-0-0-13-13-12-12-0-0-0-0-18-18-15-15|
|-0-0-0-0-13-13-12-12-0-0-0-0-18-18-15-15|

Related for Jolly Death - Vil Scarecrow tab
Advertisement will be closed in 10 seconds