Guitaretab - guitar tabs
Song name
# A B C D E F G H I J K L M N O P Q R S T U V W X Y Z

Misc Unsigned Bands - Boyce Avenue - So Much Time tab

Boyce Avenue  So Much Time
Tabbed by Alejandro Manzano of Boyce Avenue

www.myspace.com/boyceavenue

Acoustic Guitar

Key of G (A during key change)

Tuning: Standard

^ = Hammer on
P = pull off
X = mute

Intro/Verse/Turnaround/Outro:
---------0^2-----------3p2-----------------------------------|
-----3-------3-----3-------3-----------3---0---------3-------|
---0---0---------0---0-----------0^2-------------0-----2p0---|
-2-------------0---------------0-----0---0-----2---2-------4-|
-----------------------------2---------------3---------------|
-------------------------------------------------------------|

Pre-Chorus:
-0---2---0-----2-|
-1---3---0-----3-|
-0---0---0-----2-|
-2---0---2-----0-|
-0---2---3-----0-|
-----------------|
[ Tab from: http://www.guitaretab.com/m/misc-unsigned-bands/103583.html ]
Chorus 1 and 2 and slide solo and last jam:
-3---2---3---2---3---2---3---2-|
-3---3---3---3---3---3---3---3-|
-0---2---0---2---0---2---0---2-|
-0---0---2---0---2---0---2---0-| (play twice)
-x---0---3---0---2---0---3---0-|
-3---------------0-------------|


Bridge:
-2----3--2--3--3---3---2----3--2--3--3---3---2----3--2--3--3---|
-3----3--3--3--3---3---3----3--3--3--3---3---3----3--3--3--3---|
-2----0--2--0--0---0---2----0--2--0--0---0---2----0--2--0--0---|
-0----2--0--0--0---0---0----2--0--0--0---0---0----2--0--0--0---|
-0----2--0--x--0^2-2---0----2--0--x--0^2-2---0----2--0--x--0^2-|
------0--2--3---------------0--2--3---------------0--2--3------|

-3---2---3-----2---2-|
-3---3---3-----3---3-|
-0---2---0-----0---2-|
-0---0---2-----x---0-|
-2---0---3-----3---0-|
---------------------|

Breakdown:
-3---3---3---3-|
-3---3---3---3-|
-0---0---0---0-|
-0---2---2---2-|
-x---3---2---3-|
-3-------0-----|

Key Change:
-0---0---0---0---0---0---0---0-|
-2---0---3---0---0---0---2---0-|
-2---1---2---1---2---1---3---1-|
-2---2---0---2---4---2---0---2-|
-0---2---0---2---4---2---0---2-|
-----0-------0---2---0-------0-|
Related for Boyce Avenue - So Much Time tab