Song name
# A B C D E F G H I J K L M N O P Q R S T U V W X Y Z

Misc Unsigned Bands - Lil94c - Soft Soothing Riff tab

Tuning:

e|---0--3--------------------------------------------------3---------------1-----|
B|----------------5----3--------5--0------3-----------1-------------3--------l---|
G|--------------------------------------------0----------------------------------|
D|-------------------------------------------------------------------------------|
A|-------------------------------------------------------------------------------|
E|-------------------------------------------------------------------------------|

e|--------0------------3--5^----------------------------------------------------|
B|-0----------------------------------------------------------------------------|
G|------------------------------------------------------------------------------|
D|------------------------------------------------------------------------------|
A|------------------------------------------------------------------------------|
E|------------------------------------------------------------------------------|
Tap to rate this tab
# A B C D E F G H I J K L M N O P Q R S T U V W X Y Z