Song name
# A B C D E F G H I J K L M N O P Q R S T U V W X Y Z

Misc Unsigned Bands - Systematic Death - Falling For Nothing tab

-------------------------------------------------------------------------------
		Falling for nothing - Systematic Death
-------------------------------------------------------------------------------
Tabbed by: Rukasu Rindu
Email: PM for it if there's any problems. Not a member? Sorry, can't help.

Tuning:(high to low) DAFCGDA


Okey, this is my first song, started playing just a while back in time, did not
spend too much time on this one, just wanted something that me and i band could
play. Hope you like it!

Intro:

D|---------------------------------------------------------------------------|
A|---------------------------------------------------------------------------|
F|---------------------------------------------------------------------------|
C|---------------------------------------------------------------------------|
G|-01111111--01111111--88888888--8888-10-10-10--66666666--66666666-----------|
D|-01111111--01111111--88888888--8888-10-10-10--66666666--66666666-----------|
A|-01111111--01111111--88888888--8888-8--8--8---66666666--66666666-----------|

Verse:

D|-------------------x-------------------x-----------------------------------|
A|-------------------3-------------------3-----------------------------------|
F|-------------------3-------------------3-----------------------------------|
C|-------------------3-------------------3-----------------------------------|
G|-x-x-x-x--x-x-x-x----x-x-x-x--x-x-x-x--------------------------------------|
D|-x-x-x-x--x-x-x-x----x-x-x-x--x-x-x-x--------------------------------------|
A|-x-x-x-x--x-x-x-x----x-x-x-x--x-x-x-x--------------------------------------|

Chorus:

D|---------------------------------------------------------------------------|
A|---------------------------------------------------------------------------|
F|---------------------------------------------------------------------------|
C|---------------------------------------------------------------------------|
G|-333-555-444-888--333-555-444-888--333-555-444-888-------------------------|
D|-111-333-222-666--111-333-222-666--111-333-222-666-------------------------|
A|---------------------------------------------------------------------------|

Bridge1:

D|---------------------------------------------------------------------------|
A|---------------------------------------------------------------------------|
F|---------------------------------------------------------------------------|
C|---------------------------------------------------------------------------|
G|---------------------------------------------------------------------------|
D|-1-1-1-2-2-2-3-3-3-555-555--1-1-1-2-2-2-3-3-3-555-555----------------------|
A|---------------------------------------------------------------------------|

Bridge2:

D|---------------------------------------------3h4---3h4---------------------|
A|--22222222220000000000--------------------3h5---3h5------------------------|
F|----------------------3333333333-------------------------------------------|
C|--------------------------------5555555555---------------------------------|
G|---------------------------------------------------------------------------|
D|---------------------------------------------------------------------------|
A|---------------------------------------------------------------------------|

Outro:

D|---13h14--13h14--13h14--13h14--16h17--16h17--16h17--16h17--------------------------|
A|-12-----12-----12-----12-----15-----15-----15-----15-------------------------------|
F|-----------------------------------------------------------------------------------|
C|-----------------------------------------------------------------------------------|
G|-----------------------------------------------------------------------------------|
D|-----------------------------------------------------------------------------------|
A|---------------------------------------------------------4-3-2-0-------------------|

Order:

Intro x3
Verse x4
Chorus x8
Verse x4
Bridge1 x2
Bridge2 x1
Chorus x10
Outro x1

| /  slide up
| \  slide down
| h  hammer-on
| p  pull-off
| ~  vibrato
| +  harmonic
| x  Mute note
===============================================================================
Tap to rate this tab
 
# A B C D E F G H I J K L M N O P Q R S T U V W X Y Z