Song name
# A B C D E F G H I J K L M N O P Q R S T U V W X Y Z

Misc Unsigned Bands - Write This Down - Relative Ease tab

Artist: Write This Down
Song: Relative Ease
Tuning: Drop D

		  Verse
e|----------------------------|
B|----------------------------|
G|----------------------------|
D|-12-12-12-12-12-12-12-12-12-|
A|-9--9--9--9--9--9--9--9--9--|
D|-9--9--9--9--9--9--9--9--9--|

e|----------------------------|
B|----------------------------|
G|----------------------------|
D|-4-4-4-4-4-4-4-4-4----------|
A|-0-0-0-0-0-0-0-0-0----------|
D|-0-0-0-0-0-0-0-0-0----------|

e|----------------------------|
B|----------------------------|
G|----------------------------|
D|-7-7-7-7-7-7-7-7-7----------|
A|-5-5-5-5-5-5-5-5-5----------|
D|-5-5-5-5-5-5-5-5-5----------|

e|----------------------------|
B|----------------------------|
G|----------------------------|
D|-7-7-7-7-7-7-7-7-7----------|
A|-4-4-4-4-4-4-4-4-4----------|
D|-4-4-4-4-4-4-4-4-4----------|


            Chorus
e|----------------------------|
B|----------------------------|
G|----------------------------|
D|-7-7-7-7-7-7-7-7-7----------|
A|-5-5-5-5-5-5-5-5-5----------|
D|-5-5-5-5-5-5-5-5-5----------|

e|----------------------------|
B|----------------------------|
G|----------------------------|
D|-4-4-4-4-4-4-4-4-4----------|
A|-0-0-0-0-0-0-0-0-0----------|
D|-0-0-0-0-0-0-0-0-0----------|

Lyrics:

clinch your fist, knuckle down and bite your lip, this was never meant to be so
it's too late for my patience and grace, i'll repeat what you said. i think youre better off
so draw your pistol. dont you dare hesitate, because i'm gunnin for you, just like youre 
for me. dont be shy, aim it high and to the right, better make it count. you better
it count.

and i'll never haunt your dreams. that's so cliche to say. and im not one to play by the
but still, what we had is gonna serve a purpose. i'm using this death, as a lyrical
and when they ask where you've gone, i'll say, a better place, you're in a better place, 
in a better place tonight.

the funeral will consist of you and i, gonna burn down this bridge despite the wisest
and i will fade into a small silhouette, with a shovel in hand, i'll walk into the sunset.

and i'll never haunt your dreams. that's so cliche to say. and im not one to play by the
but still, what we had is gonna serve a purpose. i'm using this death, as a lyrical
and when they ask where you've gone, i'll say, a better place, you're in a better place, 
in a better place tonight.

 he's lookin at you kid, there's no strength in the easy way out.
Tap to rate this tab
# A B C D E F G H I J K L M N O P Q R S T U V W X Y Z