Song name
# A B C D E F G H I J K L M N O P Q R S T U V W X Y Z

Misc Unsigned Bands - When Fortune Fails 1 - When Fortune Fails tab

----------------------------------------------------------------------------
                 When Fortune Fails 1 - When Fortune Fails
----------------------------------------------------------------------------
Tabbed by:reaper102590
Email: reaper2561@yahoo.com

Tuning:Drop-D (DADGBE)

Intro:
e|-------------------------------------------------------------------------|
B|-------------------------------------------------------------------------|
G|-------------------------------------------------------------------------|
D|-7/3\8-------------------------------------7-8-7-7-8-7-------------------|
A|-7/3\8---0-000-10----8---7-----10----8---7-7-8-7-7-8-7-----10----8---7---|
D|-7/3\8---0-000-0-0-0-0-0-0-0-0-0-0-0-0-0-0-7-8-7-7-8-7-0-0-0-0-0-0-0-0-0-|
           . ...   . .   .   . .   . .   .               . .   . .   .   .
e|-------------------------------------------------------------------------|
B|-------------------------------------------------------------------------|
G|-------------------------------------------------------------------------|
D|-------------------------------7-7-7-7h8p0h3-----------------------------|
A|---10----8---7-----10----8---7-7-7-7-7h8p0h3-----------------------------|
D|-0-0-0-0-0-0-0-0-0-0-0-0-0-0-0-7-7-7-7h8p0h3-----------------------------|
   .   . .   .   . .   .  .  .   
Verse:
e|-------------------------------------------------------------------------|
B|-------------------------------------------------------------------------|
G|-------------------------------------------------------------------------|
D|-------------------------------------------------------------------------|
A|-0-0000-------------0-0-------------0-0-------3h5p0-0-0-------7h9p0-0-0--|
D|-0-0000-3h5p0-2h3p0-0-0-3h5p0-2h3p0-0-0-3h5p0-------0-0-3h5p0-------0-0--|
   . ....             . .             . .             . .             . .
e|-------------------------------------------------------------------------|
B|-------------------------------------------------------------------------|
G|-------------------7h9p0-------------------------------------------------|
D|-------------7h9p0----------------7/3\8----------------------------------|
A|-------5h7p0---------------0-0000-7/3\8----------------------------------|
D|-5h7p0---------------------0-0000-7/3\8----------------------------------|
                             . ....
Chorus:
e|-------------------------------------------------------------------------|
B|-------------------------------------------------------------------------|
G|-------------------------------------------------------------------------|
D|-3--3--3-3--3-3-3-3-2--2--2-2--2-2-2-2-8-8-8-8-8-8-8-8------7/3\8--------|
A|-3--3--3-3--3-3-3-3-2--2--2-2--2-2-2-2-8-8-8-8-8-8-8-8-0-0--7/3\8--------|
D|-3--3--3-3--3-3-3-3-2--2--2-2--2-2-2-2-8-8-8-8-8-8-8-8-0-0--7/3\8--------|
                                                         . .
e|-------------------------------------------------------------------------|
B|-------------------------------------------------------------------------|
G|-------------------------------------------------------------------------|
D|-3--3--3-3--3-3-3-3-2--2--2-2--2-2-2-2-10-10-10-10-10-10-10-10------7/3\8|
A|-3--3--3-3--3-3-3-3-2--2--2-2--2-2-2-2-10-10-10-10-10-10-10-10-0-0--7/3\8|
D|-3--3--3-3--3-3-3-3-2--2--2-2--2-2-2-2-10-10-10-10-10-10-10-10-0-0--7/3\8|
                                                                 . .
Verse 2:
e|-------------------------------------------------------------------------|
B|-------------------------------------------------------------------------|
G|-------------------------------------------------------------------------|
D|-------------------------------------------------------------------------|
A|-0-0-10-0-0-8-0-12-0-0-000-0-0-10-0-0-8-0-12-0-0-000---------------------|
D|-0-0-0--0-0-0-0-0--0-0-000-0-0-0--0-0-0-0-0--0-0-000---------------------|
   . .    . .   .    . . ... . .    . .   .    . . ...
e|-------------------------------------------------------------------------|
B|-------------------------------------------------------------------------|
G|-------------------------------------------------------------------------|
D|-----10----8---7--------------10----8---7--------------------------------|
A|-0-0-------------0-0-000--0-0-------------0-0-000------------------------|
D|-0-0---0-0---0---0-0-000--0-0---0-0---0---0-0-000------------------------|
   . .   . .   .   . . ...  . .   . .   .   . . ...

|Intro (X2)
|Verse (X2)
|Intro (X2)
|Chorus(X2)
|Verse (X2)
|Chorus
|Verse 2
============================================================================
| /  slide up
| \  slide down
| h  hammer-on
| p  pull-off
| ~  vibrato
| +  harmonic
| x  Mute note
============================================================================
Tap to rate this tab
# A B C D E F G H I J K L M N O P Q R S T U V W X Y Z