Guitaretab - guitar tabs
Song name
# A B C D E F G H I J K L M N O P Q R S T U V W X Y Z

Misc Unsigned Bands - Ty Hartney - Silent Screams tab

S= pick slide
>= whole note
B=string bend


E|---------------------------------------------------------------|
B|---------------------------------------------------------------|
G|---------------------------------------------------------------| *2
D|----9---7---5-5-5----------------------------------------------|
A|---9---7--5-5-5------------------------------------------------|
E|-7---5---3-----------------------------------------------------|

E|---------------------------------------------------------------|
B|---------------------------------------------------------------|
G|---------------------------------------------------------------| *2
D|----9--- --7-----5-5-5-----------------------------------------|
A|---9-----7-----5-5-5-------------------------------------------|
E|77---55-5---33-3-----------------------------------------------|


E|---------------------------------------------------------------|
B|---------------------------------------------------------------|
G|---------------------------------------------------------------| 
D|---------------------------------------------------------------|
A|------Sssss----------------------------------------------------|
E|-7>---Sssss----------------------------------------------------|
[ Tab from: http://www.guitaretab.com/m/misc-unsigned-bands/103694.html ]
E|---------------------------------------------------------------|
B|---------------------------------------------------------------|
G|---99--7--99--7--99--77----------------------------------------| *3
D|---99--7--99--7--99--77-55779----------------------------------|
A|---77--5--77--5--77--55-55779----------------------------------|
E|-0000000000000000000000033557----------------------------------|

E|---------------------------------------------------------------|
B|---------------------------------------------------------------|
G|9999999-------7777777------------------------------------------| 
D|9999999999999977777777777777-----------------------------------| *4
A|7777777999999955555557777777-----------------------------------|
E|-------7777777-------5555555-----------------------------------|

Play twice with a .. .. . .. . .b pattern(chorus) )

E|---------------------------------------------------------------|
B|---------------------------------------------------------------|
G|----7777-------------------------------------------------------|*5
D|9999777777772222-----------------------------------------------|
A|9999555577772222-----------------------------------------------|
E|7777----55550000-----------------------------------------------|

FREESTYLE SOLO!!!

E|------------|      E|--------|
B|------------|*3    B|--------|
G|9-7---------|      G|--------|
D|997797------|      D|532-----|
A|795797------|      A|532-----|
E|-7-575------|      E|310-----|

(CHORUS)







E|---------------|
B|---------------|
G|55-------------| *3
D|5555773--------|
A|3355773--------|
E|--33551--------|

E|--------------|
B|99-----77-----|
G|99-99--77-77--|
D|77-99--55-77--|
A|---77-----55--|
E|--------------|

E|--------------|
B|99-----77-----|
G|99-99--77-779-|
D|77-99--55-779-|
A|---77-----557-|
E|--------------|
Related for Ty Hartney - Silent Screams tab
×
Ty Hartney - Silent Screams