Song name
# A B C D E F G H I J K L M N O P Q R S T U V W X Y Z

Misc Unsigned Bands - American Taxi - Maps And Medicine tab

AMERICAN TAXI
MAPS AND MEDICINE (TRACK 2)

Intro/verse (light)
---------------------------------------------------------------|
------7--------------6------4----------------------------------|
-------------11------------------------------------------------|
----8-------11-----6------4------------------------------------|
--6-------9------4------2--------------------------------------|
---------------------------------------------------------------|


Verse (heavy)
---------------------------------|
---------------------------------|
---------------------------------|
--8---11--6---4---8---11-6--4----|   Palm Muted
--6---9---4---2---6---9--4--2----|
---------------------------------|


Chorus
------------------------------------------------------|
------------------------------------------------------|
-11--4---8---4---11--4---8--6--11--4---8---4---11--8--|
-11--4---8---4---11--4---8--6--11--4---8---4---11--8--|
-9---2---6---2---9---2---6--4--9---2---6---2---9---6--|
------------------------------------------------------|


"Tell me that my heart is beaten black..."
-----------------------------------------------------------------|
----------------------------------------7-6-----------------7-6--|
-----------Second Time--4-4-4----6-6-6--------4-4-4----6-6-6-----|
--4---6-----------------4-4-4----6-6-6--------4-4-4----6-6-6-----|
--2---4-----------------2-2-2----4-4-4--------2-2-2----4-4-4-----|
-----------------------------------------------------------------|
On second and last post-chorus tack this on
----------------------------------------------------------------|
----------------------------------------------------------------|
--8--8--8---8-6--8~~--------------------------------------------|
--8--8--8---8-6--8~~-(x3 for second chorus, just once for last--|
--6--6--6---6-4--6~~--------------------------------------------|
----------------------------------------------------------------|


Bridge ("Wha-oh, wha-oh) (Played over lightly strummed Chorus)
(Also played over last chorus)
------------------------------------------------------|
----7--7-6--7----7--7-6----------7--7-6--7------------|
-------------------------6----------------------------|
----------------------------x6------------------------|
------------------------------------------------------|
Tap to rate this tab
 
# A B C D E F G H I J K L M N O P Q R S T U V W X Y Z