Song name
# A B C D E F G H I J K L M N O P Q R S T U V W X Y Z

Misc Unsigned Bands - Mbmod - Tmbmod tab

Help us improve GuitareTab! Take a short survey!
tmbmod


e|----------------------|
b|----------------------|
g|----------------------|
D|----------------------|
A|-0-2-4-0-2-4-0-2-4----|
E|----------------------|

e|------------------------------------------|
b|------------------------------------------|
g|------------------------------------------|
D|------------------------------------------|
A|--------------0-2-3-0-2-3-0-2-3-3-2-------|
E|-0-1-3-0-1-3------------------------------|

e|---------------------|
b|---------------------|
g|---------------------|
D|---------------------|
A|-2-2-3-3-4-4---------|
E|-1-1-2-2-3-3---------|

e|-------------0--------|
b|-------------0--------|
g|-------------0--------|
D|-------------0--------|
A|-4-4-3-3-2-2-0--------|
E|-3-3-2-2-1-1-o--------|


e|-12---12--12--12--12-11-11--11--|
b|----11--11--11--11---12-12-12---|
g|--------------------------------|
D|--------------------------------|
A|--------------------------------|
E|--------------------------------|

e|-11ho-------------|
b|-12ho-------------|

e|----------------------|
b|----------------------|
g|----------------------|
D|----------------------|
A|-0-2-4-0-2-4-0-2-4----|
E|----------------------|


| /  slide up
| \  slide down
| h  hammer-on
| p  pull-off
| ~  vibrato
| +  harmonic
| x  Mute note
| w  wammy
| ho hold
===============================================================================
Related for Mbmod - Tmbmod tab