Song name
# A B C D E F G H I J K L M N O P Q R S T U V W X Y Z

Misc Unsigned Bands - Slime 69 - Meatballs Of America tab

My bandmate George uploaded a Meatballs of America tab, but it was somewhat... not 
dead on.  So, I'm fixing it.  Enjoy.

Tuning: Regular EADGBE

Intro
Bass plays this twice:

E-------22-00000-----------|
A-44-22--------------------|
D--------------------------|
G--------------------------|

 C   B  F#  E

Guitar kicks in here:

E--------22--00000---------|
A-44--22-44--22222---------|
D-66--44-------------------|
G--------------------------|
B--------------------------|
E--------------------------|


Verse
   C
E------------------------|
A--4~--------------------|
D--6~--------------------|
G------------------------|
B------------------------|
E------------------------|

-Bass Verse-


Chorus
  E    B    C

E-000000----------------------|
A-222222---22----44-----------|
D-222222---44----66-----------|
G-----------------------------|
B-----------------------------|
E-----------------------------|

Verse
   C
E------------------------|
A--4~--------------------|
D--6~--------------------|
G------------------------|
B------------------------|
E------------------------|

-Bass Verse-

Chorus
  E    B    C

Chorus
  E    B    C

E-000000----------------------|
A-222222---22----44-----------|
D-222222---44----66-----------|
G-----------------------------|
B-----------------------------|
E-----------------------------|

Bridge
E--------------------------------------------------------------------|
A--4---4---4----------4------4------4----------4---------------------|
D---2~--2~--2-4-6-4-2--2-4-2--2-4-2--2-4-6-4-2--2-4-2~---------------|
G--------------------------------------------------------------------|
B--------------------------------------------------------------------|
E--------------------------------------------------------------------|

Chorus
  E    B    C              End on:C

Chorus
  E    B    C

E-000000-------------0--------|
A-222222---22----44--2--------|
D-222222---44----66--2--------|
G-----------------------------|
B-----------------------------|
E-----------------------------|
Tap to rate this tab
# A B C D E F G H I J K L M N O P Q R S T U V W X Y Z