Song name
# A B C D E F G H I J K L M N O P Q R S T U V W X Y Z

Misc Unsigned Bands - Bogoyatoo - Feelin It tab

-------------------------7------7---------------------------------------|
---------------------------10--7---10p7---------------------------------|
--2------------------9br-----------------9/0----2-----------------------|
--2---------7-----------------------------------2-----------------------|
--0---------7-----------------------------------0-----------------------|
------------5-----------------------------------------------------------|
shot in the mouth
im feelin it
cumin on
im feelin me
cumin (softly spoken)

-----------------------------------------8p7-------8p7---------------------|
---------------------10B-p8----10B-8-10------10--------10-8----------------|
--9--------9----------------9-------------------9-----------9-7-------9----|
--9--------9----------------------------------------------------9/0---9----|
--7--------7----------------------------------------------------------7----|
---------------------------------------------------------------------------|
shot in the mouth
no tellin
shot in the mouth
no tellin you

-------------------------12----------------------------------------|
-----13~------13~---15B-----15p13--15p13---15p13-------------------|
--14-------14--------------------14-----14-------14--12h14~~~------|
-------------------------------------------------------------------|
-------------------------------------------------------------------|
-------------------------------------------------------------------|
its gonna be our secret
shot in the mouth
dont tell
shot in the mouth

-------------12------12------12-----------12-----12-----12-------------------|
-----------12-----12------12----15B----12-----12-----12----15-13-------------|
--------14-----14------14-----------14-----14-----14-------------14-12-------|
----------------------------------------------------------------------12-----|
-2-2-2--------------------------------------------------------------------2--|
-0-0-0------------------------------------------------------------------0-0--|
im feelin it
shot in the mouth im cumin
shot in the mouth
im cumin

shot in the mouth
Tap to rate this tab
 
# A B C D E F G H I J K L M N O P Q R S T U V W X Y Z