Song name
# A B C D E F G H I J K L M N O P Q R S T U V W X Y Z

Misc Unsigned Bands - Coalesce - A Disgust For Details tab

-------------------------------------------------------------------------------
			     A Disgust For Details - Coalesce
-------------------------------------------------------------------------------
Tabbed by: Glenn	
Email:farmer_clegg@hotmail.com

First tab so it's probably not great but i couldn't find any tabs anywhere for 
this song so here's some of the bits i've been able to figure out that sound
almost right!

Tuning: Drop C# 


Intro x 2 - with wah
e|---------------------------------------------------------------------------|
B|---------------------------------------------------------------------------|
G|--9----------------9----------------9---------------9----------------------|
D|--9----------------9----------------9---------------9----------------------|
A|---------------------------------------------------------------------------|
E|----2-2-222-2--------2-2-222-2-------2-2-222-2-------2-2-222-2-------------|

e|---------------------------------------------------------------------------|
B|---------------------------------------------------------------------------|
G|--9------------------------------------------------------------------------|
D|--9------------------------------------------------------------------------|
A|---------------------------------------------------------------------------|
E|----2-2-222-2--------------------------------------------------------------|


Verse x 4
e|---------------------------------------------------------------------------|
B|---------------------------------------------------------------------------|
G|---------------------------------------------------------------------------|
D|---------------------------------------------------------------------------|
A|--2-3-3-2-3-3-2-3-3-2-3-3-2-4-3--------------------------------------------|
E|--2-3-3-2-3-3-2-3-3-2-3-3-2-4-3--------------------------------------------|

then on the 5th time, play the same as the verse but add section 1 t to the 
end so that it looks like Section 2 and then repeat the verse 5 times

Section 1
e|---------------------------------------------------------------------------|
B|---------------------------------------------------------------------------|
G|---------------------------------------------------------------------------|
D|---------------------------------------------------------------------------|
A|--2-3----------------------------------------------------------------------|
E|--2-3----------------------------------------------------------------------|

Section 2
e|---------------------------------------------------------------------------|
B|---------------------------------------------------------------------------|
G|---------------------------------------------------------------------------|
D|---------------------------------------------------------------------------|
A|--2-3-3-2-3-3-2-3-3-2-3-3-2-4-3-2-3----------------------------------------|
E|--2-3-3-2-3-3-2-3-3-2-3-3-2-4-3-2-3----------------------------------------|

After playing the verse 5 times, it changes into this.  Play this pattern 4 times

e|---------------------------------------------------------------------------|
B|---------------------------------------------------------------------------|
G|---------------------------------------------------------------------------|
D|---------------------------------------------------------------------------|
A|----7-5-6-----7------------------------------------------------------------|
E|--7---------7---10-9-------------------------------------------------------|

Then play this

e|---------------------------------------------------------------------------|
B|---------------------------------------------------------------------------|
G|---------------------------------------------------------------------------|
D|-------------9-------------------------------------------------------------|
A|----7-5-6------10-9-7------------------------------------------------------|
E|--7--------7---------------------------------------------------------------|

Then play this 4 times and finish with this  -->

e|---------------------------------------------------------------------------|
B|---------------------------------------------------------------------------|
G|---------------------------------------------------------------------------|
D|----9-7-8----9----------------------------------9-7-8----------------------|
A|--7--------7---10-9-7-------------------------7----------------------------|
E|---------------------------------------------------------------------------|

Now this part has lots of crazy sounds so i tend to just play this and slide 
down afterwards as its not really clear whats actually being played 
(Numbers indicate the different interludes)

    1st		2nd		3rd		4th		5th
e|---------------------------------------------------------------------------|
B|---------------------------------------------------------------------------|
G|--9------------------------------------------------------------------------|
D|--9------------------------------------------------------------------------|
A|-------------5-5-5------------5-5-5-----------5-5-------------5-5-5--------|
E|-------------5-5-5------------5-5-5-----------5-5-------------5-5-5--------|

The 5th interlude builds up to the next bit.  Now this doesn't sound perfect
but its pretty close.  Play this 4 times

Section 3
e|---------------------------------------------------------------------------|
B|---------------------------------------------------------------------------|
G|---------------------------------------------------------------------------|
D|---------------------------------------------------------------------------|
A|--6--3-2----5-6-7-5-6-7-----6--3-2----5-6-7-5-6-7--------------------------|
E|--6--3-2--------------------6--3-2-----------------------------------------|

Same principle but slightly different at 1:33

e|---------------------------------------------------------------------------|
B|---------------------------------------------------------------------------|
G|---------------------------------------------------------------------------|
D|---------------------------------------------------------------------------|
A|--6--3-2----5-6-7-5-6-7-5-6-7-----6--3-2----5-6-7-5-6----------------------|
E|--6--3-2--------------------------6--3-2-----------------------------------|

Play Section 3 another twice but finish on the power chords

e|---------------------------------------------------------------------------|
B|---------------------------------------------------------------------------|
G|---------------------------------------------------------------------------|
D|---------------------------------------------------------------------------|
A|--6--3-2----5-6-7-5-6-7-----6--3-2----5-6-7-5-6-7-----6--3-----------------|
E|--6--3-2--------------------6--3-2--------------------6--3-----------------|

Play the verse again 6 times and repeat sections 1 and 2.  Play Section 2
another 5 times

Not too sure how the end goes, but its basically the same principle as before
but when the notes shift up at 2:28 it sounds like its played here: Play this 
twice

e|---------------------------------------------------------------------------|
B|---------------------------------------------------------------------------|
G|---------------------------------------------------------------------------|
D|----9-7-8----12-11--9------------------------------------------------------|
A|--7-------7-----------12---------------------------------------------------|
E|---------------------------------------------------------------------------|

The outro is the same as the into except you finish with this

e|---------------------------------------------------------------------------|
B|---------------------------------------------------------------------------|
G|--9----------------9-------------------------------------------------------|
D|--9----------------9-------------------------------------------------------|
A|---------------------------------------------------------------------------|
E|----2-2-222-2--------------------------------------------------------------|


| /  slide up
| \  slide down
| h  hammer-on
| p  pull-off
| ~  vibrato
| +  harmonic
| x  Mute note
===============================================================================
Tap to rate this tab
# A B C D E F G H I J K L M N O P Q R S T U V W X Y Z