Song name
# A B C D E F G H I J K L M N O P Q R S T U V W X Y Z

Misc Unsigned Bands - Big Coat Weather - Morty Park tab

"Morty Park"
by Big Coat Weather
played by Matt English

[Lead Guitar]

Intro/Main Riff:
e-|------------------------------------------------|
B-|------------------------------------------------|
G-|------------------------------------------------|
D-|--8-8--6---------6-------8-8--6-----------------|     X 2
A-|---------8-7--878-876-----------8-7--8-88--6-66-|
E-|------------------------------------------------|
                            palm mute -   ..    ..

Slight change:
e-|------------------------------------------------|
B-|------------------------------------------------|
G-|------------------------------------------------|
D-|--8-8--6---------6-------8-8--6------6-66-6-66--|
A-|---------8-7--878-876-----------8-7--6-66-6-66--|
E-|------------------------------------------------|
			         palm mute -    ..   ..

e-|------------------------------------------------|
B-|------------------------------------------------|
G-|------------------------------------------------|
D-|--8-8--6---------6-------8-8--6-------6---------|
A-|---------8-7--878-876-----------8-7--8-87676----|
E-|------------------------------------------------|

Then repeat Intro/Main riff, but on the second time end with:
e-|------------------------------------------------|
B-|------------------------------------------------|
G-|------------------------------------------------|
D-|--8-8--6---------6-------8-8--6------------6-66-|
A-|---------8-7--878-876-----------8-7--8-88--6-66-|
E-|------------------------------------------------|
                            palm mute -   ..    ..

Verse overlay (listen to match rhythms w/ second guitar):
e-|------------------------------------------------|
B-|------------------------------------------------|
G-|------------------------------------------------|
D-|--8--8--6--6---------------6--------------------|
A-|--------------8--8-6h7h8-8---87-----------------|
E-|------------------------------------------------|

e-|----------------------------------|
B-|----------------------------------|
G-|----------------------------------|
D-|--8--8--6--6-------------6--------|
A-|--------------8--8-6h7h8---8-7-6--| quickly into:
E-|----------------------------------|

e-|------------------------------------------------|
B-|------------------------------------------------|
G-|------------------------------------------------|
D-|--8--8--6--6----------------8-------------------|
A-|--------------8--8-6h7h8-8--8-x4----------------|
E-|------------------------------------------------|

Addition Lead Riff (w/ Wah):
e-|---------------------------------------------------------|
B-|---------------------------------------------------------|
G-|--10-10--8------------8--------10-10--8------------------|
D-|-----------10-9--10910-1098-------------10-9--10~--8~----|
A-|---------------------------------------------------------|
E-|---------------------------------------------------------|
                                                                             X 2
e-|---------------------------------------------------------------|
B-|---------------------------------------------------------------|
G-|--10-10--8------------8--------10-10--8------------------------|
D-|-----------10-9--10910-1098-------------10-9--10-1010--8-88----|
A-|---------------------------------------------------------------|
E-|---------------------------------------------------------------|
                                     palm mute -     . .    ..

While playing through the second time, the main intro/riff plays along with this.

Bridge overlay (played w/ bass):
e-|-------------------------------------------------------|
B-|-------------------------------------------------------|
G-|-------------------------------------------------------|
D-|-----------------8-6-----------------------6-8-6-------|
A-|--6--6-6-8--8-8------8-6-8--8--8-8-6--6-6--------8-6---|
E-|-------------------------------------------------------|

e-|---------------------------------------------------|
B-|---------------------------------------------------|
G-|---------------------------------------------------|
D-|------------------8-6-------686--------------------|
A-|--8--8-8-6--6-6-------8-6-8----876-7-6(b)-6(b)-----|
E-|---------------------------------------------------|


The main riff is played again with some slight changes.

Outro:
e-|---------------------------|
B-|---------------------------|
G-|---------------------------|
D-|--/8-6---------------------|
A-|------8-7-6-----------66---|
E-|------------9~--6~----66---|
             palm mute - ..

[Rhythm Guitar]

Verse 1 (after lead intro)
e-|----------------------------------|
B-|----------------------------------|
G-|----------------------------------|
D-|--8------6------------------------|
A-|--8--x8--6--x8--8-----7--6--------|  X4 (w/ slight variations throughout)
E-|----------------8--x7-7--6--x8----|
 pm -.      .      .     .  .

Chorus (w/ Lead part)

e-|------------------------------------|
B-|------------------------------------|
G-|------------------------------------|
D-|--8------6--------------------------|
A-|--8--x4--6--x4--8-----7--6-----7----|  X4 (4th time no palm mute)
E-|----------------8--x3-7--6--x3-7----|
 pm -.      .      .     .  .     .


Verse 2:
e-|----------------------------------|
B-|----------------------------------|
G-|----------------------------------|
D-|--8------6------------------------|
A-|--8--x8--6--x8--8-----7--6--------|  X4
E-|----------------8--x7-7--6--x8----|
   Listen to the song to figure out palm mutes (it's not hard)

Ending/Verse 3
e-|------------------|-------------------------|
B-|------------------|*------------------------|
G-|------------------|-------------------------|
D-|--8------8-8--8-8-|---8-----6---------------|
A-|--8--x8--8-8--8-8-|*--8-x16-6-x6--8-7-6-----|  X2
E-|------------------|---------------8-7-6-x8--|
 pm -.                  Again, listen to figure out palm mutes. It's not too hard.


Key:
h=hammer on
/=slide up
~=let ring
(b)=bend string
.=palm mute on this note
|
|*
|   =repeat from this point
|*
|

There you have it. Nothing too difficult. Bass tab coming soon.

Note: I own the copyright of this piece, and I freely allow it to be posted for 
purposes.

X\/\/\/\/\/\/\/\/\/\/\/\/\/\/\/\/\/\/\/\/\/\/\/\/\/\/\/\/\/\X
X          Listen to these songs and download some @        X
X myspace.com/bigcoatweather  purevolume.com/bigcoatweather X
X              (c)Big Coat Weather/Matt English             X
X\/\/\/\/\/\/\/\/\/\/\/\/\/\/\/\/\/\/\/\/\/\/\/\/\/\/\/\/\/\X
Tap to rate this tab
# A B C D E F G H I J K L M N O P Q R S T U V W X Y Z