Song name
# A B C D E F G H I J K L M N O P Q R S T U V W X Y Z

Misc Unsigned Bands - Sing Praises To Jehovah - 10 Be Steadfast Unmovable tab

Sing Praises to Jehovah

Kingdom Melody #10

TAB by Stanilemgo

Copyright, 1984, by 
Watch Tower Bible and Tract Society
of Pennsylvania

3/4

E||--0---1--0----|--8---5-------|--0-----------|--------------|-------0------|
B||--1-----------|--5-------5---|--3---3----2--|--3-----------|--3-------3---|
G||--2-----------|--5-----------|--2-----------|--2-----------|--1-----------|  
D||--------------|--------------|--0-----------|--0-----------|--------------| 
A||--0-----------|--------------|--------------|--------------|--2-----------|  
E||--------------|--5-----------|--------------|--------------|--------------|


|--7-----------|--------------|--------------|--0----1--0---|--8---5-------|
|--9---9-------|--3---1----0--|--1-----------|--1-----------|--5-------5---|
|--7-------7---|--2-----------|--2-----------|--2-----------|--5-----------|
|--------------|--2-----------|--2-----------|--------------|--------------|
|--------------|--0-----------|--0-----------|--0-----------|--------------|
|--0-----------|--------------|--------------|--------------|--5-----------|


|--3---1----0--|--1-----------|--0----1--0---|--4---5---7---|--5-----------|
|--3---3-------|--3-----------|--1-----------|--5-----------|--5-----------|
|--2-----------|--2-----------|--2-----------|--7---4---6---|--5-----------|
|--0-----------|--0-----------|--------------|--------------|--------------|
|--------------|--------------|--0-----------|--------------|--0-----------|
|--------------|--------------|--------------|--0-----------|--------------|


|--------------||------0-------|--5-----0-----|--0-----------|--------------|
|--------------||------2-------|--5-----------|--3---3----2--|--3-----------|
|--------------||------2-------|--6-----------|--4-----------|--1-----------|
|--------------||--------------|--------------|--4-----------|--------------|
|--------------||------0-------|--------------|--------------|--2-----------|
|--------------||--------------|--5-----------|--------------|--------------|


|--------------|--7-----------|--------------|--------------|--------------|
|--3-----------|--9-----------|--3---2-------|--2-----------|--0-----2-----|
|--------------|--7-----7-----|--2---2----5--|--2-----------|--2-----------|
|--------------|--------------|--2---2-------|--2-----------|--0-----------|
|--2-----------|--------------|--0-----------|--0-----------|--0-----------|
|--------------|--0-----------|--------------|--------------|--------------|


|------2---5---|--5-----------|--5---7---5---|--9-----------|--4-----------|
|--3-----------|--5-----------|--------------|--10----------|--5-----------|
|--4-----------|--6-----------|--------------|--11----------|--7-----------|
|--4-----------|--------------|--------------|--0-----------|--------------|
|--2-----------|--------------|--------------|--------------|--------------|
|--------------|--5-----------|--5-----------|--------------|--0-----------|


|--5-----------|--------------|
|--5-----------|--------------|
|--6-----------|--------------|     Repeat all 3 times
|--------------|--------------|
|--------------|--------------|
|--5-----------|--------------|
Tap to rate this tab
# A B C D E F G H I J K L M N O P Q R S T U V W X Y Z