Song name
# A B C D E F G H I J K L M N O P Q R S T U V W X Y Z

Misc Unsigned Bands - Big Coat Weather - Dimethicone tab

Dimethicone
by Big Coat Weather
played by Matt English

[Lead Guitar]

Riff (played throughout entire song)
e-|--0-3-5-7-5h7p5-3-0-X2----------------------|
B-|-----------------------0-3-5-7-5h7p5-3-0-X2-|
G-|--------------------------------------------|
D-|--------------------------------------------|
A-|--------------------------------------------|
E-|--------------------------------------------|

[Bass]

Riff (played throughout)
G-|--------------|
D-|--------------|
A-|--------------|
E-|-0-07~--5-3-2-|


[Rhythm Guitar]

Riff (played throughout)
e-|-----------------------|
B-|-----------------------|
G-|-----------------------|
D-|--2-2--4-4--5-5--7-7---|
A-|--2-2--4-4--5-5--7-7---|
E-|--0-0--2-2--3-3--5-5---|  X2
pm - . .  . .  . .  . .

e-|-----------------------|
B-|-----------------------|
G-|-----------------------|
D-|--9-9--7-7--5-5--4-4---|
A-|--9-9--7-7--5-5--4-4---|
E-|--7-7--5-5--3-3--2-2---| X2


Extremely easy. Just a loop really. There are clav and synth parts but I don't feel like 
those.


Note: I own the copyright of this piece, and I freely allow it to be posted for 
purposes.

X\/\/\/\/\/\/\/\/\/\/\/\/\/\/\/\/\/\/\/\/\/\/\/\/\/\/\/\/\/\X
X          Listen to these songs and download some @        X
X myspace.com/bigcoatweather  purevolume.com/bigcoatweather X
X              (c)Big Coat Weather/Matt English             X
X\/\/\/\/\/\/\/\/\/\/\/\/\/\/\/\/\/\/\/\/\/\/\/\/\/\/\/\/\/\X
Tap to rate this tab
# A B C D E F G H I J K L M N O P Q R S T U V W X Y Z