Guitaretab - guitar tabs
Song name
# A B C D E F G H I J K L M N O P Q R S T U V W X Y Z

Misc Unsigned Bands - 420 Proof - Who Am I tab

This is a tab by the underground utah metal band 420 proof

Artist: 420 Proof
Song: Who Am I?
Album: Here's Your Proof (October 31st, 2008)
Tuning: Drop D

Intro (Heavy Distortion)
|--------------------------|
|--------------------------|
|--------------------------|
|-0--3-5-6--0-3--0-3-5-8-8-|
|-0--3-5-6--0-3--0-3-5-8-8-|
|-0--3-5-6--0-3--0-3-5-8-8-|

Verse
|-----------------------------------------------------------------|
|-----------------------------------------------------------------|
|-----------------------------------------------------------------|
|-2-2-5-5-2-2-5-5-2-2-5-5-2-2-5-5-5-5-5-5-5-5-5-5-5-5-5-5-5-5-5-5-|
|-2-2-5-5-2-2-5-5-2-2-5-5-2-2-5-5-5-5-5-5-5-5-5-5-5-5-5-5-5-5-5-5-|
|-0-0-0-0-0-0-0-0-0-0-0-0-0-0-0-0-3-3-3-3-3-3-3-3-3-3-3-3-3-3-3-3-|
  . . . . . . . . . . . . . . . . . . . . . . . . . . . . . . . .

Pre Chorus
|--------------------------------------------------------------------------|
|--------------------------------------------------------------------------|
|--------------------------------------------------------------------------|
|-----------------------------------------------------------------------17-|
|-2-2-2-2-2-2-2-2-5-5-5-5-5-5-5-5-7-7-7-7-7-7-7-7-9-9-9-9-9-9-9-9-------15-|
|--------------------------------------------------------------------------|

Chorus (Guitar 1)
|-------------------------------------------------------------------------|
|-------------------------------------------------------------------------|
|-9-9-9-9-9-9-9-9-11-11-11-11-11-11-11-11-7-7-7-7-7-7-7-7-5-5-5-5-5-5-5-5-|
|-x-x-x-x-x-x-x-x--x--x--x--x--x--x--x--x-x-x-x-x-x-x-x-x-x-x-x-x-x-x-x-x-|
|-7-7-7-7-7-7-7-7--9--9--9--9--9--9--9--9-5-5-5-5-5-5-5-5-3-3-3-3-3-3-3-3-|
|-------------------------------------------------------------------------|
[ Tab from: http://www.guitaretab.com/m/misc-unsigned-bands/103781.html ]
Chorus (Guitar 2)
|-------------------------------------------------------------------------|
|-------------------------------------------------------------------------|
|-------------------------------------------------------------------------|
|-9-9-9-9-9-9-9-9-11-11-11-11-11-11-11-11-7-7-7-7-7-7-7-7-5-5-5-5-5-5-5-5-|
|-9-9-9-9-9-9-9-9-11-11-11-11-11-11-11-11-7-7-7-7-7-7-7-7-5-5-5-5-5-5-5-5-|
|-7-7-7-7-7-7-7-7--9--9--9--9--9--9--9--9-5-5-5-5-5-5-5-5-3-3-3-3-3-3-3-3-|

Interlude
|-------------------|
|-------------------|
|------3--5--3-2--1-|
|-0~--2-------------|
|-0~----------------|
|-0~----------------|

Before Bridge
|------------------------|
|------------------------|
|---------7--------------|
|-2-2-5-5-7--5-7--5-3--1-|
|-2-2-5-5-5--5-7--5-3--1-|
|-0-0-0-0----5-7--5-3--1-|

Bridge
|---------------------------------|
|---------------------------------|
|---------------------------------|
|-4-4-4-4-4-4-4-4-7-7-7-7-7-7-7-7-|
|-0-2-0-2-0-2-0-2-0-5-0-5-0-5-0-5-|
|-0-2-0-2-0-2-0-2-0-5-0-5-0-5-0-5-|

After Bridge
|----------------------------------|
|----------------------------------|
|----------------------------------|
|-7(7)7(7)7(7)7(7)7(7)7(7)7(7)7(7)-|
|-0h5-0h5-0h5-0h5-0h5-0h5-0h5-0h5--|
|-0h5-0h5-0h5-0h5-0h5-0h5-0h5-0h5--|

Order Of Play
Intro X8
Verse X6
Pre Chorus
Chorus X4
Interlude X2
Verse X4
Pre Chorus
Chorus X4
Before Bridge X4
Bridge X8
After Bridge X4
Interlude
Chorus X4
Intro X4

Lyrics:

How did I get here?
I donít remember sleeping at all
When will this all be gone in the end?
How did I make it here?
Yesterday I was no one
No money I stole for food to eat, just to eat


If Iím still asleep
I know Iíll reach the end

Iíve scaled the seven walls
Iíve salted the open wounds
Iíve led the masochists
To their doom
Iíve opened up the door
The key was in the sky
Which leads me to wonder
Who am I?

How can I try?
When everything was taken from me
Nothing left here, raped and robbed from me
How am I alive?
When they showed up at my door
I didnít even blink as I fell to the floor

If Iím still asleep
I know my time has come

When I was laying in that corner
Blood falling from my face
God wasnít there
God doesnít care
If Iím alone in here
What should I do?
Everyoneís abandoned me
Everyone but you

If Iím still here
I made it thru the night
But Iím still scared
Separate me from the light
Related for 420 Proof - Who Am I tab