Guitaretab - guitar tabs
Song name
# A B C D E F G H I J K L M N O P Q R S T U V W X Y Z

Misc Unsigned Bands - Bury Us All - One Last Breath tab

D|----------------------------------------------------------------|
A|----------------------------------------------------------------|
F|----------------------------------------------------------------|
C|-----------7------------7---------------------------------------| (x2)
G|-------------8------------8-10-8-7-8----------------------------|
C|-0-0-0-0-0------0-0-0-0-----------------------------------------|


D|----------------------------------------------------------------|
A|----------------------------------------------------------------|
F|----------------------------------------------------------------| 
C|-----------7-------------7--------------------------------------| (x1)
G|-------------8-------------8-10-8-7-8---------------------------|
C|-8-8-8-8-8------8-8-8-8-----------------------------------------|

                                                        
D|----------------------------------------------------------------|
A|----------------------------------------------------------------|
F|----------------------------------------------------------------|
C|------------7-8-------7-8-10-8-10-12----------------------------| 
G|----------------------------------------------------------------|
C|-7-7-7-7-7------7-7-7-------------------------------------------|

                        Repeat Until Necessary

D|----------------------------------------------------------------|
A|---9/10-9-7-9-7-5-7*----9/10-9-7-9-7-5-7*----10-9-10-12-10-9-10-|
F|----------------------------------------------------------------| 
C|----------------------------------------------------------------| 
G|----------------------------------------------------------------|
C|-0------------------0----------------------8--------------------|


D|----------------------------------------------------------------|
A|----------------------------------------------------------------|
F|---10-9-7-9-7-5-7*----------------------------------------------|
C|----------------------------------------------------------------|(x2)
G|----------------------------------------------------------------|
C|-7--------------------------------------------------------------|


                         Repeat Beginning ending on high C 12th fret
[ Tab from: http://www.guitaretab.com/m/misc-unsigned-bands/103801.html ]
Breakdown
D|----------------------------------------------------------------|
A|----------------------------------------------------------------|
F|----------------------------------------------------------------|
C|----------------------------------------------------------------|(x2)
G|----------------------------------------------------------------|
C|-0-0-0-0-0-0-0-0---0-0-0-0-0-0-0---0-0--------------------------|

one hand tap 
D|----------------------------------------------------------------|
A|----------------------------------------------------------------|
F|----------------------------------------------------------------|
C|--3-0-3-0-3-0-3-0-3-0-3-0-3-0-3-0-2-0-2-0-2-0-2-0-2-0-2-0-2-0-2-0
G|----------------------------------------------------------------|
C|----------------------------------------------------------------|


D|----------------------------------------------------------------|
A|----------------------------------------------------------------|
F|----------------------------------------------------------------|
C|--5-0-5-0-5-0-5-0-5-0-5-0-5-0-5-0--3-0-3-0-3-0-2-0-2-0-2-0-2-0--| (x2)
G|----------------------------------------------------------------|
C|----------------------------------------------------------------|


D|----------------------------------------------------------------|
A|----------------------------------------------------------------|
F|----------------------------------------------------------------|
C|----------------------------------------------------------------|(x2)
G|----------------------------------------------------------------|
C|-0-0-0-0-0-0-0-0---0-0-0-0-0-0-0---0-0--------------------------|

D|----------------------------------------------------------------|
A|----------------------------------------------------------------|
F|----------------------------------------------------------------|
C|-----------7------------7---------------------------------------| (x2)
G|-------------8------------8-10-8-7-8----------------------------|
C|-0-0-0-0-0------0-0-0-0-----------------------------------------|


D|----------------------------------------------------------------|
A|----------------------------------------------------------------|
F|----------------------------------------------------------------| 
C|-----------7-------------7--------------------------------------| (x1)
G|-------------8-------------8-10-8-7-8---------------------------|
C|-8-8-8-8-8------8-8-8-8-----------------------------------------|

                                                        
D|----------------------------------------------------------------|
A|----------------------------------------------------------------|
F|----------------------------------------------------------------|
C|------------7-8-------7-8-10-8-10-12-vibrato let ring-----------| 
G|----------------------------------------------------------------|
C|-7-7-7-7-7------7-7-7-------------------------------------------|


Pretty simple. Listen close for the melody.
                                                        
Related for Bury Us All - One Last Breath tab
Advertisement will be closed in 10 seconds