Song name
# A B C D E F G H I J K L M N O P Q R S T U V W X Y Z

Misc Unsigned Bands - 420 Proof - Special Design tab

Artist: 420 Proof
Song: Special Design
Album: Here's Your Proof (October 31st, 2008)
Tuning: Drop D

Intro
|------------------|---------------|
|------------------|---------------|
|-5555555555555555-|---------------|
|-xxxxxxxxxxxxxxxx-|-2-2----2-2----|
|-3333333333333333-|-2-2----2-2----|
|------------------|-0-0----0-0----|

Verse
|---------------------------------|
|---------------------------------|
|---------------------------------|
|-3-3-3-3-3-3-3-3-2-2-2-2-2-2-2-2-|
|-x-x-x-x-x-x-x-x-2-2-2-2-2-2-2-2-|
|-3-3-3-3-3-3-3-3-0-0-0-0-0-0-0-0-|

Chorus (Chords)
|-------------------------------------|
|-------------------------------------|
|-------------------3-----------------|
|-2--------5--------3--------1--------|
|-2--------5--------1--------1--------|
|-0--------3--------1--------1--------|

Interlude During Talking
|--------------|
|----------<7>-|
|-2--------<7>-|
|-2--------<7>-|
|-0------------|

Bridge 1
|---------------------------------|---------|
|---------------------------------|---------|
|---------------------------------|---------|
|-2-2-x-x-2-2-x-x-2-2-x-x-2-2-x-x-|-2-2-2-2-|
|-2-2-x-x-2-2-x-x-2-2-x-x-2-2-x-x-|-2-2-2-2-|
|-0-0-x-x-0-0-x-x-0-0-x-x-0-0-x-x-|-0-0-0-0-|
                                    . . . .

Bridge 2 (Chords)
|-------------------------------------|
|-------------------------------------|
|-------------------------------------|
|-3--------7--------5--------5--------|
|-3--------7--------5--------5--------|
|-1--------0--------0--------3--------|

Outro
|---------------------------|
|---------------------------|
|---------------------------|
|-2--2-2-5--3-5-3h5-3h5-3h5-|
|-2--2-2-5--3-5-------------|
|-0--0-0-3--0-0-------------|

Lyrics:

Burning through, cut a noose
In a special design
Time to blink, what to think
Breaks the mold this time
You dont have the balls
You cant make me fall

Ill never give up
Ill never bow down
You want to take me on
Youll hit the ground
You want to fight
You want to go
Time for you to die
Time to lose control

What to think, what to feel
Will help you right
Need to fall, lose it all
Youll meet your maker tonight
If you want me now
Come and get me (NOW!!!)

You thought you were strong
You aint seen nothing yet
Im bringing my gull
Fucking stronger than all
You threatened my whole family
Now youre as good as dead
Time for you to die
Sleep well in the bed you made
Youll meet your maker tonight

You thought you could take me on
Its time for you to fucking die
Tap to rate this tab
# A B C D E F G H I J K L M N O P Q R S T U V W X Y Z