Song name
# A B C D E F G H I J K L M N O P Q R S T U V W X Y Z

Misc Unsigned Bands - The Reatards - Break Down tab

THE REATARDS - Break Down
Tabbed by: Tom

Tuning: Standard

Main riff: This is played for the intro, verse and chorus.
Just palm mute during the verse.
e|---------------------------------|
B|---------------------------------|
G|---------------7---7-7-7-7-------|
D|-9---9-9-2-2-2-7---7-7-7-7-7-7-7-|
A|-9---9-9-2-2-2-5---5-5-5-5-7-7-7-|
E|-7---7-7-0-0-0-------------5-5-5-|

Bridge: play this 4x
e|---------------------------------|
B|---------------------------------|
G|---------------------------------|
D|-5---5-5-5-5-5-5-7-7-7-7-7-7-7-7-|
A|-5---5-5-5-5-5-5-7-7-7-7-7-7-7-7-|
E|-3---3-3-3-3-3-3-5-5-5-5-5-5-5-5-|

And then do this 4x over the bass riff:
e|----------------------------------|
B|----------------------------------|
G|----------------------------------|
D|-9---9----------------------------|
A|-9---9----------------------------|
E|-7---7----------------------------|

Then play the main riff a bit.

End on:
e|----------------------------------|
B|----------------------------------|
G|----------------------------------|
D|-9---9\---------------------------|
A|-9---9\---------------------------|
E|-7---7\---------------------------|

Piece of cake.
Tap to rate this tab
 
# A B C D E F G H I J K L M N O P Q R S T U V W X Y Z