Song name
# A B C D E F G H I J K L M N O P Q R S T U V W X Y Z

Misc Unsigned Bands - Abibubble - Turning Away tab

-------------------------------------------------------------------------------
			     TURNING AWAY - Abibubble
-------------------------------------------------------------------------------
Tabbed by: Abi Harrison
Email: abi_harrison@lesoftco.co.uk

Tuning: Normal, EADGBe

Intro
e|------0-------0--------0--------0-|
B|---3---3---3---3---3---3---3---3--|
G|-2-------2-------2-------2--------|
D|----------------------------------|
A|----------------------------------|
E|----------------------------------|

e|------0-------0--------0--------0-|
B|---3---3---3---3---3---3---3---3--|
G|-3-------3-------3--------3-------|
D|----------------------------------|
A|----------------------------------|
E|----------------------------------|

e|------0-------0--------0--------0-|
B|---3---3---3---3---3---3---3---3--|
G|-2-------2-------2-------2--------|
D|----------------------------------|
A|----------------------------------|
E|----------------------------------|

Verse 1
e|------0-------0--------0--------0-|
B|---3---3---3---3---3---3---3---3--|
G|-2-------2-------2-------2--------|
D|----------------------------------|
A|----------------------------------|
E|----------------------------------|
My time has come and

e|------0-------0--------0--------0-|
B|---3---3---3---3---3---3---3---3--|
G|-2-------2-------2-------2--------|
D|----------------------------------|
A|----------------------------------|
E|----------------------------------|
It's going no-where

e|------0-------0--------0--------0-|
B|---3---3---3---3---3---3---3---3--|
G|-3-------3-------3---------3------|
D|----------------------------------|
A|----------------------------------|
E|----------------------------------|
I need you here

e|------2-------2--------2--------2-|
B|---3---3---3---3---3---3---3---3--|
G|-4-------4-------4-------4--------|
D|----------------------------------|
A|----------------------------------|
E|----------------------------------|
Be-side me

Chorus
e|----0---0-0-|
B|----0---0-0-|
G|------------|
D|-2---2------|
A|-2---2------|
E|-0---0------|
You can't keep running

e|----0---0-0-----0-|
B|----0---0-0-----0-|
G|------------------|
D|-2---2-------2----|
A|-2---2-------2----|
E|-0---0-------0----|
You can't keep running away

e|----0---0-0-|
B|----0---0-0-|
G|------------|
D|-2---2------|
A|-2---2------|
E|-0---0------|
You can't keep hiding

e|----0---0-0-----0-|
B|----0---0-0-----0-|
G|------------------|
D|-2---2-------2----|
A|-2---2-------2----|
E|-0---0-------0----|
You can't keep turning away

e|-----0-0---0-|
B|----0-0----0-|
G|-2------4----|
D|-------------|
A|-------------|
E|-------------|
You can't just leave now

e|-----0-0---0-----4-4-|
B|----0-0----0-----4-4-|
G|-2------4-----6------|
D|---------------------|
A|---------------------|
E|---------------------|
You can't just leave me all alone

Verse 2
e|------0-------0--------0--------0-|
B|---3---3---3---3---3---3---3---3--|
G|-2-------2-------2-------2--------|
D|----------------------------------|
A|----------------------------------|
E|----------------------------------|
My song has been sung

e|------0-------0--------0--------0-|
B|---3---3---3---3---3---3---3---3--|
G|-2-------2-------2-------2--------|
D|----------------------------------|
A|----------------------------------|
E|----------------------------------|
And all that's left now

e|------0-------0--------0--------0-|
B|---3---3---3---3---3---3---3---3--|
G|-2-------2-------2-------2--------|
D|----------------------------------|
A|----------------------------------|
E|----------------------------------|
A chord sounding out

e|------0-------0--------0--------0-|
B|---3---3---3---3---3---3---3---3--|
G|-4-------4-------4-------4--------|
D|----------------------------------|
A|----------------------------------|
E|----------------------------------|
So unlike me

Chorus
e|----0---0-0-|
B|----0---0-0-|
G|------------|
D|-2---2------|
A|-2---2------|
E|-0---0------|
You can't keep running

e|----0---0-0-----0-|
B|----0---0-0-----0-|
G|------------------|
D|-2---2-------2----|
A|-2---2-------2----|
E|-0---0-------0----|
You can't keep running away

e|----0---0-0-|
B|----0---0-0-|
G|------------|
D|-2---2------|
A|-2---2------|
E|-0---0------|
You can't keep hiding

e|----0---0-0-----0-|
B|----0---0-0-----0-|
G|------------------|
D|-2---2-------2----|
A|-2---2-------2----|
E|-0---0-------0----|
You can't keep turning away

e|-----0-0---0-|
B|----0-0----0-|
G|-2------4----|
D|-------------|
A|-------------|
E|-------------|
You can't just leave now

e|-----0-0---0-----4-4-|
B|----0-0----0-----4-4-|
G|-2------4-----6------|
D|---------------------|
A|---------------------|
E|---------------------|
You can't just leave me all alone

Ending
e|-3-4-3-|
B|-3-4-3-|
G|-0-1-0-|
D|-----0-|      LET LAST CHORD RING OUT
A|-----2-|
E|-----3-|
I'm alone


This song was written on the spot in a moment of boredom, by me, Abibubble. Any CC will 
welcomed. Just email it to my email address above! Thanks! x


| /  slide up
| \  slide down
| h  hammer-on
| p  pull-off
| ~  vibrato
| +  harmonic
| x  Mute note
===============================================================================
Tap to rate this tab
# A B C D E F G H I J K L M N O P Q R S T U V W X Y Z