Song name
# A B C D E F G H I J K L M N O P Q R S T U V W X Y Z

Misc Unsigned Bands - The One Two - Tumble Weed tab

Song: Tumble Weed
Artist: The One Two
Quality: Excactly How It Is Played
Tuning: Drop D


Intro

E------------------------------------------------------------------------------|
B------------------------------------------------------------------------------|
G-------------------------------------------------------------10-10-10-10-9----|
D------10---10---10----10------8--------10---10---10-----10--8--8--8--8--8-----|
A----x----x----x-----------10------8----x----x----x-----------8--8--8--8--8----|
D---x-x--x-x--x-x---888--8---8---8----x-x--x-x--x-x---888----8--8--8--8--8-----|

E---------------------------------------------------------------------------|
B---------------------------------------------------------------------------|
G---------------------------------------------------------------------------|
D-10-10-10-10--10-10-10-10--10-10-10-10---10-10-10-10---8--8--8--8---88-----|
A--x--x--x--x---x--x--x--x----x--x--x--x----8--8--8--8---10-10-10-10---88---|
D--x--x--x--x---x--x--x--x----x--x--x--x----8--8--8--8----8--8--8--8---88---|

E---------------------------------------------------------------------------|
B---------------------------------------------------------------------------|
G---------------------------------------------------------10-10-10-10---9---|
D-10-10-10-10--10-10-10-10--10-10-10-10---10-10-10-10---8--8--8--8---8------|
A--x--x--x--x---x--x--x--x----x--x--x--x----8--8--8--8----8--8--8--8---8----|
D--x--x--x--x---x--x--x--x----x--x--x--x----8--8--8--8----8--8--8--8---8----|

Verse 1:

E---------------------------------------------------------------------------|
B---------------------------------------------------------------------------|
G---------------------------------------------------------------------------|
D-10-10-10-10--10-10-10-10--10-10-10-10---10-10-10-10---8--8--8--8---88-----|
A--x--x--x--x---x--x--x--x----x--x--x--x----8--8--8--8---10-10-10-10---88---|
D--x--x--x--x---x--x--x--x----x--x--x--x----8--8--8--8----8--8--8--8---88---|

E---------------------------------------------------------------------------|
B---------------------------------------------------------------------------|
G---------------------------------------------------------10-10-10-10--10---|
D-10-10-10-10--10-10-10-10--10-10-10-10---10-10-10-10---8--8--8--8---8------|
A--x--x--x--x---x--x--x--x----x--x--x--x----8--8--8--8----8--8--8--8---8----|
D--x--x--x--x---x--x--x--x----x--x--x--x----8--8--8--8----8--8--8--8---8----|

E---------------------------------------------------------------------------|
B---------------------------------------------------------------------------|
G---------------------------------------------------------------------------|
D-10-10-10-10--10-10-10-10--10-10-10-10---10-10-10-10---8--8--8--8---88-----|
A--x--x--x--x---x--x--x--x----x--x--x--x----8--8--8--8---10-10-10-10---88---|
D--x--x--x--x---x--x--x--x----x--x--x--x----8--8--8--8----8--8--8--8---88---|

E---------------------------------------------------------------------------|
B---------------------------------------------------------------------------|
G---------------------------------------------------------10-10-10-10---9---|
D-10-10-10-10--10-10-10-10--10-10-10-10---10-10-10-10---8--8--8--8---8------|
A--x--x--x--x---x--x--x--x----x--x--x--x----8--8--8--8----8--8--8--8---8----|
D--x--x--x--x---x--x--x--x----x--x--x--x----8--8--8--8----8--8--8--8---8----|

E---------------------------------------------------------------------------|
B---------------------------------------------------------------------------|
G---------------------------------------------------------------------------|
D-10-10-10-10--10-10-10-10--10-10-10-10---10-10-10-10---8--8--8--8---88-----|
A--x--x--x--x---x--x--x--x----x--x--x--x----8--8--8--8---10-10-10-10---88---|
D--x--x--x--x---x--x--x--x----x--x--x--x----8--8--8--8----8--8--8--8---88---|

E---------------------------------------------------------------------------|
B---------------------------------------------------------------------------|
G---------------------------------------------------------10-10-10-10--10---|
D-10-10-10-10--10-10-10-10--10-10-10-10---10-10-10-10---8--8--8--8---8------|
A--x--x--x--x---x--x--x--x----x--x--x--x----8--8--8--8----8--8--8--8---8----|
D--x--x--x--x---x--x--x--x----x--x--x--x----8--8--8--8----8--8--8--8---8----|

E---------------------------------------------------------------------------|
B---------------------------------------------------------------------------|
G---------------------------------------------------------------------------|
D-10-10-10-10--10-10-10-10--10-10-10-10---10-10-10-10---8--8--8--8---88-----|
A--x--x--x--x---x--x--x--x----x--x--x--x----8--8--8--8---10-10-10-10---88---|
D--x--x--x--x---x--x--x--x----x--x--x--x----8--8--8--8----8--8--8--8---88---|

E---------------------------------------------------------------------------|
B---------------------------------------------------------------------------|
G---------------------------------------------------------10-10-10-10--10---|
D-10-10-10-10--10-10-10-10--10-10-10-10---10-10-10-10---8--8--8--8---8------|
A--x--x--x--x---x--x--x--x----x--x--x--x----8--8--8--8----8--8--8--8---8----|
D--x--x--x--x---x--x--x--x----x--x--x--x----8--8--8--8----8--8--8--8---8----|


Chorus:

E-----------------------------------------------------------------------|
B-----------------------------------------------------------------------|
G-----------------------------------------------10-10-10-10-------------|
D-33333333333333-55555555555555-10-10-10-10--8--8--8--8-10-10-10-10-----|
A-33333333333333-55555555555555--8--8--8--8--8--8--8--8--8--8--8--8-----|
D-33333333333333-55555555555555--8--8--8--8--8--8--8--8--8--8--8--8-----|

E-----------------------------------------------------------------------|
B-----------------------------------------------------------------------|
G-----------------------------------------------10-10-10-10-------------|
D-33333333333333-55555555555555-10-10-10-10--8--8--8--8----9--9---------|
A-33333333333333-55555555555555--8--8--8--8--8--8--8--8----8--8---------|
D-33333333333333-55555555555555--8--8--8--8--8--8--8--8----8--8---------|

Verse 2:

E---------------------------------------------------------------------------|
B---------------------------------------------------------------------------|
G---------------------------------------------------------------------------|
D-10-10-10-10--10-10-10-10--10-10-10-10---10-10-10-10---8--8--8--8---88-----|
A--x--x--x--x---x--x--x--x----x--x--x--x----8--8--8--8---10-10-10-10---88---|
D--x--x--x--x---x--x--x--x----x--x--x--x----8--8--8--8----8--8--8--8---88---|

E---------------------------------------------------------------------------|
B---------------------------------------------------------------------------|
G---------------------------------------------------------10-10-10-10--10---|
D-10-10-10-10--10-10-10-10--10-10-10-10---10-10-10-10---8--8--8--8---8------|
A--x--x--x--x---x--x--x--x----x--x--x--x----8--8--8--8----8--8--8--8---8----|
D--x--x--x--x---x--x--x--x----x--x--x--x----8--8--8--8----8--8--8--8---8----|

E---------------------------------------------------------------------------|
B---------------------------------------------------------------------------|
G---------------------------------------------------------------------------|
D-10-10-10-10--10-10-10-10--10-10-10-10---10-10-10-10---8--8--8--8---88-----|
A--x--x--x--x---x--x--x--x----x--x--x--x----8--8--8--8---10-10-10-10---88---|
D--x--x--x--x---x--x--x--x----x--x--x--x----8--8--8--8----8--8--8--8---88---|

E---------------------------------------------------------------------------|
B---------------------------------------------------------------------------|
G---------------------------------------------------------10-10-10-10--10---|
D-10-10-10-10--10-10-10-10--10-10-10-10---10-10-10-10---8--8--8--8---8------|
A--x--x--x--x---x--x--x--x----x--x--x--x----8--8--8--8----8--8--8--8---8----|
D--x--x--x--x---x--x--x--x----x--x--x--x----8--8--8--8----8--8--8--8---8----|

E---------------------------------------------------------------------------|
B---------------------------------------------------------------------------|
G---------------------------------------------------------------------------|
D-10-10-10-10--10-10-10-10--10-10-10-10---10-10-10-10---8--8--8--8---88-----|
A--x--x--x--x---x--x--x--x----x--x--x--x----8--8--8--8---10-10-10-10---88---|
D--x--x--x--x---x--x--x--x----x--x--x--x----8--8--8--8----8--8--8--8---88---|

E---------------------------------------------------------------------------|
B---------------------------------------------------------------------------|
G---------------------------------------------------------10-10-10-10---9---|
D-10-10-10-10--10-10-10-10--10-10-10-10---10-10-10-10---8--8--8--8---8------|
A--x--x--x--x---x--x--x--x----x--x--x--x----8--8--8--8----8--8--8--8---8----|
D--x--x--x--x---x--x--x--x----x--x--x--x----8--8--8--8----8--8--8--8---8----|

Chorus

E-----------------------------------------------------------------------|
B-----------------------------------------------------------------------|
G-----------------------------------------------10-10-10-10-------------|
D-33333333333333-55555555555555-10-10-10-10--8--8--8--8-10-10-10-10-----|
A-33333333333333-55555555555555--8--8--8--8--8--8--8--8--8--8--8--8-----|
D-33333333333333-55555555555555--8--8--8--8--8--8--8--8--8--8--8--8-----|

E-----------------------------------------------------------------------|
B-----------------------------------------------------------------------|
G-----------------------------------------------10-10-10-10-------------|
D-33333333333333-55555555555555-10-10-10-10--8--8--8--8----9--9---------|
A-33333333333333-55555555555555--8--8--8--8--8--8--8--8----8--8---------|
D-33333333333333-55555555555555--8--8--8--8--8--8--8--8----8--8---------|

Instrumental Guitar One:

E-------------------------------------------------------------------|
B-------------------------------------------------------------------|
G-------------------------------------------------------------------|
D--10-10-10--8-8-8--7-7-7--8-8-8-7-5-2-2-2-3-3-3--x-x-x-x-x-x-x-x---|
A---x--x--x--x-x-x--x-x-x---x-x-x-x-x-x-x-x-x-x-x--x-x-x-x-x-x-x-x--|
D---x--x--x--x-x-x--x-x-x---x-x-x-x-x-x-x-x-x-x-x--x-x-x-x-x-x-x-x--|

E------------------------------------------------------------------------------|
B------------------------------------------------------------------------------|
G--------------10-10-10-10---------------------------10-10-10-10---------------|
D-10-10-10-10--8--8--8--8-10-10-10-10--10-10-10-10--8--8--8--8-10-10-10-10-----|
A--8--8--8--8--8--8--8--8--8--8--8--8---8--8--8--8---8--8--8--8--8--8--8--8----|
D--8--8--8--8--8--8--8--8--8--8--8--8---8--8--8--8---8--8--8--8--8--8--8--8----|

E-------------------------------------------------------------------|
B-------------------------------------------------------------------|
G-------------------------------------------------------------------|
D--10-10-10--8-8-8--7-7-7--8-8-8-7-5-2-2-2-3-3-3--x-x-x-x-x-x-x-x---|
A---x--x--x--x-x-x--x-x-x---x-x-x-x-x-x-x-x-x-x-x--x-x-x-x-x-x-x-x--|
D---x--x--x--x-x-x--x-x-x---x-x-x-x-x-x-x-x-x-x-x--x-x-x-x-x-x-x-x--|

E------------------------------------------------------------------------------|
B------------------------------------------------------------------------------|
G--------------10-10-10-10---------------------------10-10-10-10---------------|
D-10-10-10-10--8--8--8--8-10-10-10-10--10-10-10-10--8--8--8--8-10-10-10-10-----|
A--8--8--8--8--8--8--8--8--8--8--8--8---8--8--8--8---8--8--8--8--8--8--8--8----|
D--8--8--8--8--8--8--8--8--8--8--8--8---8--8--8--8---8--8--8--8--8--8--8--8----|

Chorus:

E-----------------------------------------------------------------------|
B-----------------------------------------------------------------------|
G-----------------------------------------------10-10-10-10-------------|
D-33333333333333-55555555555555-10-10-10-10--8--8--8--8-10-10-10-10-----|
A-33333333333333-55555555555555--8--8--8--8--8--8--8--8--8--8--8--8-----|
D-33333333333333-55555555555555--8--8--8--8--8--8--8--8--8--8--8--8-----|

E-----------------------------------------------------------------------|
B-----------------------------------------------------------------------|
G-----------------------------------------------10-10-10-10-------------|
D-33333333333333-55555555555555-10-10-10-10--8--8--8--8----9--9---------|
A-33333333333333-55555555555555--8--8--8--8--8--8--8--8----8--8---------|
D-33333333333333-55555555555555--8--8--8--8--8--8--8--8----8--8---------|

Outro:

E-
B-
G-
D-10 (Ring Out) -----10-8-7(hammer on)-8(hammer Off)-7-|
A--x (Ring Out) -----x---------------------------------|
D--x (Ring Out)------x---------------------------------|


100% correct
Written By Jarith Hughes And Jack Griffin
The One TwoŠ
Tap to rate this tab
# A B C D E F G H I J K L M N O P Q R S T U V W X Y Z