Song name
# A B C D E F G H I J K L M N O P Q R S T U V W X Y Z

Misc Unsigned Bands - Divinity - Brevity Of Life tab

okay this tab was completly worked out by ear,and it took a while but here it is i 
figure out the solo though its sounds really confusing but heres my tab.guitars 1 and 2 do 
same thing the whole song.

Intro:

  PM__      PM_          PM_      PM_
E ---------|--------------------|-----------------------|
B ---------|--------------------|-----------------------|
G ---------|--------------------|-----------------------|
D ---------|--------------------|------------10-8-7-----|
A -----8P7-|----10-8-8P7-----8P7|-----10-8-7------------|
E -000-----|-000----------000---|--000------------------|

E -------------------------------------------------------|
B -------------------------------------------------------|
G -------------------------------------------------------|
D 10-8-7------14-12-10--------10-8-7------12-10-8--------|
A ------10-8-7--------14-12-10------10-8-7-------12-10-8-|
E -------------------------------------------------------|

E ------------------------------------------------------|
B ------------------------------------------------------|
G ------------------------------------------------------|
D -10-8-7-8-7-5-7-5-3-5-3-2-----------------------------|
A --------------------------2-2-2222-2-3----------------|
E --------------------------0-0-0000-0-3----------------|


Verse/rhythm for solo:
  PM____     PM          PM__       PM
E ---------|-----------|--------|-----------------------|
B ---------|-----------|--------|-----------------------|
G ---------|-----------|--------|-----------------------|
D -------9-|---10-9-7-9|------9-|-----7-5-4-5-----------|
A -------7-|---8--7-5-7|------7-|-----5-3-2-3-----------|
E -0-000---|-00--------|-0-000--|---00------------------|

bridge:

E ------------------------------------------------------|
B ------------------------------------------------------|
G ------------------------------------------------------|
D ---9---7---5---5-4---9----7--5------------------------|
A -2-7-2-5-2-3-2-3-2-2-7-2-5-2-3-2-5-4------------------|
E -0---0---0---0-----0---0---0---0-3-2------------------|

Chorus:

E ------------------------------------------------------|
B ------------------------------------------------------|
G ------------------------------------------------------|
D ------------------------------------------------------|
A -2-222-222-222-222-225-555-555-555/10-10-10/9-54------|
E -0-000-000-000-000-003-333-333-333/8---8--8/7-32------|

2nd bridge:

E ------------------------------------------------------|
B ------------------------------------------------------|
G ------------------------------------------------------|
D ---4-5-7----------------------------------------------|
A -2-2-3-5----------------------------------------------|
E -0----------------------------------------------------|

Outro:

   PM___________   PM_______
E -----------------------------------|------------------|
B -----------------------------------|------------------|
G -----------------------------------|------------------|
D ---------------------------5-4-----|------------------|
A -22222222222222-5-22222222-3-2-3-4-|-2----------------|
E -00000000000000-3-00000000-----5-2-|-0----------------|


and thats my tab its a great song and really easy to play the whole song is power chords 
the intro.ill post the solo some other time when i finally transcribe it.but for now 
enjoy guys!
Tap to rate this tab
# A B C D E F G H I J K L M N O P Q R S T U V W X Y Z