Song name
# A B C D E F G H I J K L M N O P Q R S T U V W X Y Z

Misc Unsigned Bands - Serious - Mine tab

Title: Mine
Band: Serious

Verse:
D|-2-2-x-x-x-x-2-2-----0-0-0-0-------------------------------------|
A|-3-3-x-x-x-x-2-2-----0-0-0-0-------------------------------------|
F|-4-4-x-x-x-x-3-3-----1-1-1-1-------------------------------------|
C|-4-4-x-x-x-x-4-4-0---2-2-2-2-------------------------------------|
G|-2-2-x-x-x-x-4-4-0-2-2-2-2-2-------------------------------------|
D|-----x-x-x-x-2-2-0-0-0-0-0-0-------------------------------------|

Refrain:
D|-2-2-x-x-0-0-0-0-0-2-2-x-x-0-0-0-0-0-2-2-x-x-0-0-0-0-0---0-0-0-0-|
A|-3-3-x-x-1-1-1-1-0-3-3-x-x-1-1-1-1-0-3-3-x-x-1-1-1-1-0---0-0-0-0-|
F|-4-4-x-x-2-2-2-2-0-4-4-x-x-2-2-2-2-0-4-4-x-x-2-2-2-2-0---1-1-1-1-|
C|-4-4-x-x-2-2-2-2-0-4-4-x-x-2-2-2-2-0-4-4-x-x-2-2-2-2-0---2-2-2-2-|
G|-2-2-x-x-0-0-0-0-0-2-2-x-x-0-0-0-0-0-2-2-x-x-0-0-0-0-0-2-2-2-2-2-|
D|-----x-x---------0-----x-x---------0-----x-x---------0-0-0-0-0-0-|

Enjoy!
Tap to rate this tab
# A B C D E F G H I J K L M N O P Q R S T U V W X Y Z