Guitaretab - guitar tabs
Song name
# A B C D E F G H I J K L M N O P Q R S T U V W X Y Z

Misc Unsigned Bands - Ambellina - Cape Fearsome tab

Intro
|--------------------|-----------------------------------------------|
|----------(7)-------|-0--------------------------------8p7p0-5s10~--|
|-(12)---------(5)~~-|---12p9------------------11-------------5s11~--|
|-(12)-(7)-----------|--------10-9--10s7-7s9------10-----------------|
|------(7)-----------|--------------12s9-9s10--------9---------------|
|--------------------|-0-----------------------0---------------------|

|----------------------7p5-7s8~-----------------5~--------5----------|
|-10p8p7---------------5---5-----7----------5---------------0--------|
|-----------9p7--------------------------7----7-------2p0-----0------|
|---------7-----7----5-------------5---5------------4----------------|
|---------9-------9--7-----------7---7-5-----------------------------|
|-0--------------------------------------5----------3----------------|

|---3---2h3p2p0--------3s5-7-3~-|
|-----3----------------3s5-8-0~-|
|-0----------------2p0--------0~-|
|----------------2------------4~-|
|-----------------------------2~-|
|-2--------------0------------0~-|
[ Tab from: http://www.guitaretab.com/m/misc-unsigned-bands/103900.html ]
Verse
|--------------------------------------------------------------------|
|---------------------------------------------------------3----------|
|------------0------------------0--------4--------2-----2---5-2h5p2~-|
|---9p7------------7--------------4--------4--------3----------------|
|-------9-7----7h9---7h9p7-5--------2--------2--------1--------------|
|-0----------0----------------3--------0--------1--------------------|

Chorus
|-10---------|-8---------|-5---------5-------------------------------|
|----8---8---|---5---5---|---3---3-----3---3----0~-------------------|
|------9---9-|-----7---7-|-----5---5-----5---5-------------------4~--|
|-7----------|-5---------|-3---------4----------5~-------------------|
|----(x2)----|----(x2)---|-------------------------5h7p5-2h3p2p0-----|
|------------|-----------|---------------------------------------3~--|

Bridge
|-------------------0-3p0-0~~~------10p7-10s12~--12-------10---------|
|-12------0-----------0---3s5~--7h8-----------------12-------12------|
|----9------7---7---------------7h9--------------------11-------11---|
|------10-----9---5--------------------------------------------------|
|-0-------0-----7----------------------------------------------------|
|--------------------------------------------------------------------|

|------------------------------------------------5---------------0---|
|--------------------------------------------------5-------3-------3-|
|-12-11-9----------------7-----9~---9-----12~--4-----0-------2-------|
|---------12-10-9----------9----------9----------------4~------0-----|
|-----------------10~--7-----7----7-----7--------------0~------------|
|----------------------0----------0------------3-----------2---------|

|-------------3~~~-|
|-------------3~~~-|
|-2-----------0~~~-|
|---3---------0~~~-|
|-----3p1p0---2~~~-|
|-1-----------3~~~-|

Related for Ambellina - Cape Fearsome tab